Queens Of The Stone Age - Little Sister Chords & Tabs

 

Little Sister Chords & Tabs

Queens Of The Stone Age Chords & Tabs

Version: 1 Type: Bass Tab 0 ratings
1 star 2 stars 3 stars 4 stars 5 stars
comments

Little Sister Bass Tab

#----------------------------------PLEASE NOTE---------------------------------#
#This file is the author's own work and represents their interpretation of the #
#song. You may only use this file for private study, scholarship, or research. #
#------------------------------------------------------------------------------#


Song: Little Sister
Artist: Queens of the Stone Age
Album: Lullabies to Paralyze (2005)
Tabbed by: Carlosav (carlosav@libero.it)

Intro & 1st Verse
F|---------------------------10-10-10------------------------------|
C|-/8-8--------8-8-8----------------------------------------8-8-8--|
G|------9-6-6---------9-9-9------------6-6-6--8-8-8--9-9-9---------|
D|-----------------------------------------------------------------|

         Hey Sister...
F|----|------------------------------------------------------------|
C|----|*-----8-8-8------------------------------------8-8-8--------|
G|--6-|*6-6---------9-9-9--8-8-8-8-6-6--8-8-8--9-9-9---------------|
D|----|------------------------------------------------------------|


F|-----------------------10-10-10----------------------------------|
C|---------8-8-8--------------------6-6-6--6-6-6------------------*|
G|--6-6-6---------9-9-9---------------------------9-9-9--9-9-9-8--*|
D|-----------------------------------------------------------------|


Chorus
             Little sister can't you find...
F|-----------------------------------------------------------------|
C|-----------------------------------------------------------------|
G|-11-11-11-11-11---11----9-9-9-9-9---9----13-13-13-13-13----13----|
D|----------------9----9------------7---7-----------------11----11-|


F|-----------------------|----------------------------------------|
C|-----------------------|----------------------------------------|
G|-11-11-11-11-11---11---|-11---11---11---11-----9-9-9-9-9---9----|
D|----------------9----9-|----9----9----9----9-------------7---7--|

F|------------------------------------------------|
C|------------------------------------------------|
G|-13-13-13-13-13----13-----11-11-11---9-11-9-----|
D|----------------11----11-----------11------11-9-|

F|----------------------------------------------------------------|
C|----------------------------------------------------------------|
G|-11---11---11---11----9-9-9-9-9---9----13-13-13-13-13----13-----|
D|----9----9----9----9------------7---7-----------------11----11--|


F|-----------------------|----------------------------------------|
C|-----------------------|----------------------------------------|
G|-11-11-----------11-11-|-11-11-11-11-11---11----9-9-9-9-9---9---|
D|-------9-9-11-11-------|----------------9----9------------7---7-|


F|------------------------------------------------------|
C|------------------------------------------------------|
G|-13-13-13-13----13-13-13-13----13-13-13-13----13-13---|
D|-------------11-------------11-------------11------13-|

1st Solo
F|----------------------------------------------------------|
C|---------8-8-8--------------------------------------8-8-8-|
G|--6-6-6---------9-9-9--8-8-8---6-6-6--8-8-8--9-9-9--------|
D|----------------------------------------------------------|


F|-------------------------10-10-10----------------------------|
C|---------8-8-8-----------------------------------------8-8-8-|
G|-6-6-6-----------9-9-9--------------6-6--8-8-8--9-9-9--------|
D|-------------------------------------------------------------|
[ Tab from: http://www.guitartabs.cc/tabs/q/queens_of_the_stone_age/little_sister_btab.html ]
2nd Verse
           you whisper secrets...
F|---|-----------------------------------------------------|
C|---|*-----8-8-8-8----8-----8---------------------8-8-8-8-|
G|-6-|*6-6-------9--9-9-9-8-8-8-6-6--8-8-8--9-9-9-------9--|
D|---|-----------------------------------------------------|


F|--------------------11-11-11--------------------------------|
C|--------8-8-8-----------------6-6-6--6-6-6------------8----*|
G|-6-6-6--------9-9-9-------------------------9-9-9--9-9-9-8-*|
D|------------------------------------------------------------|

2nd Chorus
F|-----------------------------------------------------------------|
C|-----------------------------------------------------------------|
G|-11-11-11-11-11---11----9-9-9-9-9---9----13-13-13-13-13----13----|
D|----------------9----9------------7---7-----------------11----11-|


F|-----------------------|----------------------------------------|
C|-----------------------|----------------------------------------|
G|-11-11-11-11-11---11---|-11---11---11---11-----9-9-9-9-9---9----|
D|----------------9----9-|----9----9----9----9-------------7---7--|

F|---------------------------------------------------|
C|-------------------------------13-13---------------|
G|13-13-13-13-13----13-----11-13-------11-13---------|
D|---------------11----11--------------------11-11-9-|

F|----------------------------------------------------------------|
C|----------------------------------------------------------------|
G|-11---11---11---11----9-9-9-9-9---9----13-13-13-13-13----13-----|
D|----9----9----9----9------------7---7-----------------11----11--|


F|-----------------------|----------------------------------------|
C|-----------------------|----------------------------------------|
G|-11-11-----------11-11-|-11-11-11-11-11---11----9-9-9-9-9---9---|
D|-------9-9-11-11-------|----------------9----9------------7---7-|


F|------------------------------------------------------|
C|------------------------------------------------------|
G|-13-13-13-13----13-13-13-13----13-13-13-13----13-13---|
D|-------------11-------------11-------------11------13-|


2nd Solo & Outro
F|----------------------|
C|---(rest)-------------|
G|----------------------|
D|----------------------|

F|-----------8-8-8---------10-10-10----------------------------|
C|-8-8---------------------------------------------------8-8-8-|
G|----9-6-6---------8-8-8------------6-6-6--8-8-8-9-9-9--------|
D|-------------------------------------------------------------|

F|-------------------------10-10-10--|----------------------10-10-10-|
C|---------8-8-8---------------------|*--------8-8-8-----------------|
G|-6-6-6-----------9-9-9-------------|*-6-6-6---------9-9-9----------|
D|-----------------------------------|-------------------------------|


               (repeat 3 times)
F|-----------------------------|----------------------10-10-10-|
C|----------------------8-8-8-*|--------8-8-8------------------|
G|-6-6-6--8-8-8--9-9-9--------*|-6-6-6---------9-9-9-----------|
D|-----------------------------|-------------------------------|

F|----------------------------|---------------------------------|
C|----------------------------|---------8-8---8-----8-------8---|
G|-6-6-6--8-8-8--9-9-9--------|-6-6-6-6-----6---9-9---9-8-8---8-|
D|----------------------6-6-6-|---------------------------------|

F|-------------------------10-10p8-------8-8---8-10-10---10-|
C|-----8---------------------------11-8------8---------8----|
G|-6-6---6-8-8-8-8-9-9-9-9----------------------------------|
D|----------------------------------------------------------|

F|-11-11---11-10--------8------------------------------------|
C|-------8-------8-8-8----8-8-8-11-8-8-8---8-8-8-------------|
G|---------------------------------------9---------6-8-8-6---|
D|-----------------------------------------------6-----------|
Comments