Queens Of The Stone Age - In My Head Chords & Tabs

 

In My Head Chords & Tabs

Queens Of The Stone Age Chords & Tabs

Version: 1 Type: Tab 0 ratings
1 star 2 stars 3 stars 4 stars 5 stars
comments

In My Head Tab

this is my favourite song from lullabies to paralyse so enjoy guys
song:in my head
artist:queens of the stone age
tabbed by:dirnt


intro
            ---------------------------------------------------------------------------
            ---------------------------------------------------------------------------
            ---------------------------------------------------------------------------
            ----6-6--+16----5-5--+16---4-4--+16----5-5--=16----------------------------
            ----7-7---------5-5--------5-5---------6-6---------------------------------
            ---------------------------------------------------------------------------

verse
            ---------------------------------------------------------------------------
            ---------------------------------------------------------------------------
            ---------------------------------------------------------------------------
            ----2-2-2-2-2--5-5-5-5-5--6-6-6-6-6--7-7-7-5-7-5---------------------------
            ----2-2-2-2-2--3-3-3-3-3--4-4-4-4-4--7-7-7-5-7-5---------------------------
            ----0-0-0-0-0------------------------5-5-5-3-5-3---------------------------
[ Tab from: http://www.guitartabs.cc/tabs/q/queens_of_the_stone_age/in_my_head_tab.html ]
chorus
            ---------------------------------------------------------------------------
            ---------------------------------------------------------------------------
            ---------------------------------------------------------------------------
            ----2-2-2-2-2-2-2-2+8--5-5-5-5-+12-4-4-4-4-+12-7-7-7-7-+4-5-5-5--4-4-4-----
            ----2-2-2-2-2-2-2-2----5-5-5-5-----4-4-4-4-----7-7-7-7----5-5-5--4-4-4-----
            ----0-0-0-0-0-0-0-0----3-3-3-3-----2-2-2-2-----5-5-5-5----3-3-3--2-2-2-----


solo
   
            ---------------------------------------------------------------------------
            ----4-4--5-5--7-7--8-8--4-4-5-5-7-7-8-8--4-4-5-5-7-7-8-8-10-12-10-8-4-4----
            ---------------------------------------------------------------------------
            ---------------------------------------------------------------------------
            ---------------------------------------------------------------------------
            ---------------------------------------------------------------------------

THATS IT I THINK SORRY IF THERE IS A FEW MISTAKES THE RHYTHM IS KIND OF TRICKY SO LISTEN
TO THE SONG IF YOU ARE HAVING TROUBLE WITH IT
Comments