Queens Of The Stone Age - In My Head Chords & Tabs

 

In My Head Chords & Tabs

Queens Of The Stone Age Chords & Tabs

Version: 3 Type: Bass Tab 0 ratings
1 star 2 stars 3 stars 4 stars 5 stars
comments

In My Head Bass Tab

artist :queens of the stone age
song :in my head
album :lullabies to paralyze 
tabbed by :Greg carlin

G:------------------------------------------------------------------|
D:------------------------------------------------------------------|
A:-7-777777777777-643------------------5555555555-6666666-----------|x1
E:--------------------44444444444-9864------------------------------|


G:------------------------------------------------------------------|
D:----------10-10-10-10-10-10-11-11-11-11-11-777-575----------------|
A:-7-777777---------------------------------------------------------|x4
E:------------------------------------------------------------------|


G:------------------------------------------------------------------|
D:------------------------------------------------------------------|
A:-7-777777777777-643------------------5555555555-6666666-----------|x1
E:--------------------44444444444-9864------------------------------|

[ Tab from: http://www.guitartabs.cc/tabs/q/queens_of_the_stone_age/in_my_head_btab_ver_3.html ]
G:------------------------------------------------------------------|
D:----------10-10-10-10-10-10-11-11-11-11-11-777-575----------------|
A:-7-777777---------------------------------------------------------|x4
E:------------------------------------------------------------------|


G:------------------------------------------------------------------|
D:------------------------------------------------------------------|
A:-7-777777777777-643------------------5555555555-6666666-----------|x2
E:--------------------44444444444-9864------------------------------|


G:------------------------------------------------------------------|
D:------------------------------------------------------------------|
A:------------------------------------------------------------------|x2
E:-5-555555-3-33333-222-1-1-6-666666-444444-222-1-1-----------------|


G:------------------------------------------------------------------|
D:----------10-10-10-10-10-10-11-11-11-11-11-777-575----------------|
A:-7-777777---------------------------------------------------------|x2
E:------------------------------------------------------------------|
Comments