Queens Of The Stone Age - In My Head Chords & Tabs

 

In My Head Chords & Tabs

Queens Of The Stone Age Chords & Tabs

Version: 2 Type: Bass Tab 0 ratings
1 star 2 stars 3 stars 4 stars 5 stars
comments

In My Head Bass Tab

Artist: Queens of the Stone Age
Album: Lullabies to paralyze
Bassist: Joshua Homme

Standard tuning.

Intro:
|--------------------------------------------------------------|
|--------------------------------------------------------------|
|---11-(x12)--11-9-------9-(X12)--11-9-------10-(X12)-11-(X12)-|
|------------------11-9----------------11-10-------------------|

Verse 1:
|-------------------------------------------------------------|
|-------------------------------------------------------------|
|----------7-(x8)-8-(x8)--------------------------------------|
|---4-(x8)---------------9-9-9-9-7-9-7/-----------------------| x4

Chorus:
|-------------------------------------------------------------|
|------------11-9---------------11-9--------------------------|
|---11-(x12)-----11-9--7-(x12)------11-9--9-(x12)-10-(x12)--|
|-------------------------------------------------------------|

Verse x4

Chorus x2
[ Tab from: http://www.guitartabs.cc/tabs/q/queens_of_the_stone_age/in_my_head_btab_ver_2.html ]
Solo:
|-------------------------------------|
|-------------------------------------|
|-5---5-5-5-5-6-6-6-8-8-8-9---9-9-9-9-|
|-------------------------------------|

|----------------------------------------------|
|----------------------------------------------|
|-5---5-5-5-5-6-6-6-8-8-8-9---9-9-9-9-11-9/8-9-|
|----------------------------------------------|

|-------------------------------------------------|
|-------------------------------------------------|
|-5---5-5-5-5-6-6-6-8-8-8-9---9-9-9-11-11/13\11-9-|
|-------------------------------------------------|

|-------------------------|
|-------------------------|
|-5---5-5-5-5-6-6-6-8-8-8-|
|-------------------------|

Verse x2

*Rest*

Chorus x3
-------------
It's the cruelest joke to play
I'm so high, i run in place
Only a line, we separate, so

I keep on playin our favorite song
I turn it up while you're gone
It's all i got when you're in my head and you're in my head so i need it

You're the only thing i've got that i can't seem to get enough
We collide for one embrace, so

Hurry up & wait forever
Hurry up & wait for forever
Comments