Queens Of The Stone Age - In My Head Chords & Tabs

 

In My Head Chords & Tabs

Queens Of The Stone Age Chords & Tabs

Version: 1 Type: Bass Tab 0 ratings
1 star 2 stars 3 stars 4 stars 5 stars
comments

In My Head Bass Tab

By: Queens of the Stone Age
Song: In My Head
Album: Lullabies to Paralyze
Bassist: Joshua Homme(so says inside the album case) 
you can play it in standard, but it might sound a bit different!
	
                intro x1

G-----------------------------------------------
D–2--2--2--2--2--2--2--2--2--2--2--2--2--0------
A-------------------------------------------2--0
E-----------------------------------------------

G-----------------------------------------------
D-------------------------------------2--0------
A-------------------------------------------2--0
E–3--3--3--3--3--3--3--3--3--3--3--3------------

G--------------------------------------------------------------------------------------------
D–0--0--0--0--0--0--0--0--0--0--0--0--0--0--0--1--1--1--1--1--1--1--1--1--1--1--1--1---------
A-------------------------------------------------------------------------------------2--2--2
E--------------------------------------------------------------------------------------------
	verse x 4
G---------------------------------------------------------------------------
D---------------------------------------------------------------------------
A---------------------3--3--3--3--3--3--4--4--4--4--4--4--------------------
E–0--0--0--0--0--0------------------------------------------5--5--5--3--5--3
	chorus
G-------------------------------------------------
D-2--2--2--2--2--2--2--2--2--2--2--2--2--2--0-----
A---------------------------------------------2--0
E–------------------------------------------------

G----------------------------------------------
D------------------------------------2--0------
A------------------------------------------2--0
E–3--3--3--3--3--3--3--3--3--3--3-3------------
[ Tab from: http://www.guitartabs.cc/tabs/q/queens_of_the_stone_age/in_my_head_btab.html ]
G-----------------------------------------------------------------------------------
D–0--0--0--0--0--0--0--0--0--0--0--0--0--0--0--1--1--1--1--1--1--1--1--1--1--1--1--1
A-----------------------------------------------------------------------------------
E-----------------------------------------------------------------------------------
	[verse x 4]
	[chorus x 2]
                
                bridge(guitar solo)

G-------------------------------------------------------
D------------------------------------0--0--0--0--0--0--0	
A–2--2--2--2--2-----------------------------------------
E-----------------3--3--3--0--0--0----------------------

G-------------------------------------------------------
D------------------------------------0--0--0--0--0--0--0	
A–2--2--2--2--2-----------------------------------------
E-----------------3--3--3--0--0--0----------------------

G-------------------------------------------------------
D------------------------------------0--0--0--0--0--0--0	
A--2--2--2--2--2----------------------------------------
E-----------------3--3--3--0--0--0----------------------

G-------------------------------------
D-------------------------------------
A--2--2--2--2--2----------------------
E------------------3--3--3--0--0--0--0

	[verse x 2]

	2nd bridge I guess
    “Hurry up,                 And wait 	forever...”
G------------------------------------------------------
D--------------------------------0------------------1--
A-----------------------------------------------2------
E–0------------3---------------------------------------

	[chorus x3] then guitar plays until end of the song

this is an easier way to play it then the other guys tab,  but it sounds the same to me
Comments