Queens Of The Stone Age - If Only Chords & Tabs

 

If Only Chords & Tabs

Queens Of The Stone Age Chords & Tabs

Version: 5 Type: Tab 0 ratings
1 star 2 stars 3 stars 4 stars 5 stars
comments

If Only Tab

   
*************************************
* QUEENS OF THE STONE AGE - IF ONLY *
*************************************

DISCO: QUEENS OF THE STONE AGE (1998)

AFINACION: C-F-Bb-Eb-G-C (Dos tonos abajo con respecto a E-a-D-G-B-e)

HECHO POR: JUAN ANGEL DE CAMILLIS.

Cualquier corrección, sugerencia, mandame un mail a jadecam_akd@hotmail.com.




INTRO/VERSO:

 c|-----------------------------------------------||
 G|-----------------------------------------------||
Eb|-----------------------------------------------||
Bb|--11-11-11-X-X-10-10-10-10-X-X-8-8-8-8-8-8-8---||
 F|--11-11-11-X-X-10-10-10-10-X-X-8-8-8-8-8-8-8---||
 C|---9--9--9-X-X--8--8--8--8-X-X-6-6-6-6-6-6-6---||


ESTRIBILLO:
[ Tab from: http://www.guitartabs.cc/tabs/q/queens_of_the_stone_age/if_only_tab_ver_5.html ]
 c|------------------------------||
 G|------------------------------||
Eb|------------------------------||
Bb|--8-8-8-8-X-X-X-11-11-11-11/--||
 F|--8-8-8-8-X-X-X-11-11-11-11/--||
 C|--6-6-6-6-X-X-X--9--9--9--9/--||

"...iiif only, ooonnlyyy..."


OUTRO:

 c|-----------------------------------------------||
 G|-----------------------------------------------||
Eb|-----------------------------------------------||
Bb|--11-11-11-X-X-10-10-10-10-X-X-8-8-8-8-8-8-8---||
 F|--11-11-11-X-X-10-10-10-10-X-X-8-8-8-8-8-8-8---||
 C|---9--9--9-X-X--8--8--8--8-X-X-6-6-6-6-6-6-6---||

final
 c|-----------------------------||
 G|-----------------------------||
Eb|-----------------------------||
Bb|--11-11-11-X-X-10-10-10-10/--||
 F|--11-11-11-X-X-10-10-10-10/--||
 C|---9--9--9-X-X--8--8--8--8/--||


** Muy pronto pondre los solos, tengo q terminar de sacarlos...:)
Comments