Queens Of The Stone Age - If Only Chords & Tabs

 

If Only Chords & Tabs

Queens Of The Stone Age Chords & Tabs

Version: 3 Type: Bass Tab 0 ratings
1 star 2 stars 3 stars 4 stars 5 stars
comments

If Only Bass Tab

Queens Of The Stone Age- If Only

Wait for 2 or 3 measures and come in after drums

Intro

G-----------------------------|
D-----------------------------|
A-------3-3---1-1-11-11-1-1---|
E-----------------------------|

Main Riff (Verse)

G-----------------------------|
D-----------------------------|
A-4-4-4---3-3--1-1-11-11-1-1--|
E-----------------------------|
[ Tab from: http://www.guitartabs.cc/tabs/q/queens_of_the_stone_age/if_only_btab_ver_3.html ]
Chorus (If Only....)

G-----------------------------|
D-----------------------------|
A--1---1-/-4---4-4--4-4-------|
E-----------------------------|

Outro

G-----------------------------|
D-----------------------------|
A-4-4-4---3-3-----------------|
E-----------------------------|

Intro   4x
Verse  10x
Chorus  4x
Verse  18x
Chorus  8x
Verse  10x
Outro   1x

By: Simon
Email: sbjerre_pedersen@hotmail.com
Comments