Queens Of The Stone Age - I Think I Lost My Headache Chords & Tabs

 

I Think I Lost My Headache Chords & Tabs

Queens Of The Stone Age Chords & Tabs

Version: 1 Type: Tab 0 ratings
1 star 2 stars 3 stars 4 stars 5 stars
comments

I Think I Lost My Headache Tab

   
I Think I Lost My Headache 
Queens of the stone age
Tuning – E A D G B E

intro/outro:
---------------------------------------|
---------------------------------------|
---------------------------------------|
------9--7--------7--6-----------------|
---8--------8--6----------8----8-------|
----------------------------9----------|

verse rhythm: end on:
-----------------------------|--------|
-----------------------------|--------|
-----------------------------|---11---|
---3--3-3--3-3--4-4---7--7---|---11---|
---3--3-3--3-3--4-4---7--7---|----9---|
---1--1-1--1-1--2-2---5--5---|--------|
[ Tab from: http://www.guitartabs.cc/tabs/q/queens_of_the_stone_age/i_think_i_lost_my_headache_tab.html ]
verse lead 1:
-----------------|
---10----fbr13---|
-----------------|
-----------------|
-----------------|
-----------------|

fill 1:
-----------------|
-----------------|
-----------------|
-----------------|
-----------------|
--5-6—5--2-3--5--|

fill 2:
-----------------|
-----------------|
-----------------|
-----------------|
-----------------|
---5-6—-2-3-2----|

chorus:
------------------------------------|--------|
------------------------------------|--------|
--------10-----------9---------6----|---15---|
-----10----10-----------9-----------|---15---|
---8-----------8--7---------4-------|---13---|
------------------------------------|--------|


that’s it really except for those really cool behind the scenes 
bit they always do!

Matthew Dixon GUMIBEAR
Comments