Queens Of The Stone Age - I Never Came Chords & Tabs

 

I Never Came Chords & Tabs

Queens Of The Stone Age Chords & Tabs

Version: 5 Type: Tab 0 ratings
1 star 2 stars 3 stars 4 stars 5 stars
comments

I Never Came Tab

 Queens of the Stone Age
 I Never Came
 From the album "Lullabies to Paralyze"
 Tabbed by: sad_statue_27@hotmail.co.uk

 Guitar 1: Clean (Standard tuning)
 Guitar 2: Slightly overdriven (Standard tuning)

 Intro/Verse (fig. 1)

            Guitar 1 w/delay 
 e|---------|--------------------------|
 b|---------|--------------------------|
 g|--Drums--|--------------------------|
 d|---------|--9--9--9--9--9--9--9--9--|
 a|---------|--7--7--7--7--7--7--7--7--|
 e|---------|--------------------------|

 e|--------------------------|--------------------------|
 b|--------------------------|--------------------------|
 g|--------------------------|--------------------------|
 d|--7--7--7--7--7--7--7--7--|--7--7--7--7--7--7--7--7--|
 a|--4--4--4--4--4--4--4--4--|--5--5--5--5--5--5--5--5--|
 e|--------------------------|--------------------------|

 e|--------------------------|
 b|--------------------------|
 g|--------------------------|
 d|--------------------------|
 a|--5--5--5--5--5--5--5--5--|
 e|--3--3--3--3--3--3--3--3--|

 Chorus
    
    Guitar 1
 e|--0--0--0--0--0--0--0--0--|--0--0--0--0--0--0--0--0--|
 b|--0--0--0--0--0--0--0--0--|--0--0--0--0--0--0--0--0--|
 g|--9--9--9--9--9--9--9--9--|--9--9--9--9--9--9--9--9--|
 d|--9--9--9--9--9--9--9--9--|--9--9--9--9--9--9--9--9--|
 a|--7--7--7--7--7--7--7--7--|--7--7--7--7--7--7--7--7--|
 e|--------------------------|--------------------------|
        1.Why you gotta  shove     it    in    my    face_ 

 e|--0--0--0--0--0--0--0--0--|--0--0--0--0--0--0--0--0--|
 b|--0--0--0--0--0--0--0--0--|--0--0--0--0--0--0--0--0--|
 g|--5--5--5--5--5--5--5--5--|--5--5--5--5--5--5--5--5--|
 d|--5--5--5--5--5--5--5--5--|--5--5--5--5--5--5--5--5--|
 a|--3--3--3--3--3--3--3--3--|--3--3--3--3--3--3--3--3--|
 e|--------------------------|--------------------------|
     _     as if__  you   put____  me    in__  my    place_ 

 e|--0--0--0--0--0--0--0--0--|--0--0--0--0--0--0--0--0--|
 b|--0--0--0--0--0--0--0--0--|--0--0--0--0--0--0--0--0--|
 g|--2--2--2--2--2--2--2--2--|--2--2--2--2--2--2--2--2--|
 d|--2--2--2--2--2--2--2--2--|--2--2--2--2--2--2--2--2--|
 a|--0--0--0--0--0--0--0--0--|--0--0--0--0--0--0--0--0--|
 e|--------------------------|--------------------------|
     __               'Cos      I           don't 

 e|--0--0--0--0--0--0--0--0--|--0--0--0--0--0--0--0--0--|
 b|--0--0--0--0--0--0--0--0--|--0--0--0--0--0--0--0--0--|
 g|--9--9--9--9--9--9--9--9--|--9--9--9--9--9--9--9--9--|
 d|--9--9--9--9--9--9--9--9--|--9--9--9--9--9--9--9--9--|
 a|--7--7--7--7--7--7--7--7--|--7--7--7--7--7--7--7--7--|
 e|--------------------------|--------------------------|
 /                                                       \
 \   Guitar 2                                            / 
 e|-----0-----0-----0-----0--|-----0-----0-----0-----0--|
 b|--7-----7-----8-----8-----|--8-----8-----8-----8-----|
 g|--------------------------|--------------------------|
 d|--------------------------|--------------------------|
 a|--------------------------|--------------------------|
 e|--------------------------|--------------------------|
     care  if you_     or me________  is right__ or  wrong


 e|--0--0--0--0--0--0--0--0--|--0--0--0--0--0--0--0--0--|
 b|--0--0--0--0--0--0--0--0--|--0--0--0--0--0--0--0--0--|
 g|--9--9--9--9--9--9--9--9--|--9--9--9--9--9--9--9--9--|
 d|--9--9--9--9--9--9--9--9--|--9--9--9--9--9--9--9--9--|
 a|--7--7--7--7--7--7--7--7--|--7--7--7--7--7--7--7--7--|
 e|--------------------------|--------------------------|
/                                                        \ 
\                                                        /  
 e|-----0-----0-----0-----0--|-----0-----0-----0-----0--|
 b|--7-----7-----8-----8-----|--7-----7-----8-----8-----|
 g|--------------------------|--------------------------|
 d|--------------------------|--------------------------|
 a|--------------------------|--------------------------|
 e|--------------------------|--------------------------|
        Ain't gon  -  na  spend_____  a- nother___   night_
[ Tab from: http://www.guitartabs.cc/tabs/q/queens_of_the_stone_age/i_never_came_tab_ver_5.html ]
 e|--0--0--0--0--0--0--0--0--|--0--0--0--0--0--0--0--0--|
 b|--0--0--0--0--0--0--0--0--|--0--0--0--0--0--0--0--0--|
 g|--5--5--5--5--5--5--5--5--|--5--5--5--5--5--5--5--5--|
 d|--5--5--5--5--5--5--5--5--|--5--5--5--5--5--5--5--5--|
 a|--3--3--3--3--3--3--3--3--|--3--3--3--3--3--3--3--3--|
 e|--------------------------|--------------------------|
/                                                        \
\                                                        /
 e|------0-----0-----0----0--|------0-----0-----0----0--|
 b|--10----10----10----10----|--10----10----10----10----|
 g|--------------------------|--------------------------|
 d|--------------------------|--------------------------|
 a|--------------------------|--------------------------|
 e|--------------------------|--------------------------|
                       in                   your

 e|--0--0--0--0--0--0--0--0--|--0--0--0--0--0--0--0--0--|
 b|--0--0--0--0--0--0--0--0--|--0--0--0--0--0--0--0--0--|
 g|--2--2--2--2--2--2--2--2--|--2--2--2--2--2--2--2--2--|
 d|--2--2--2--2--2--2--2--2--|--2--2--2--2--2--2--2--2--|
 a|--0--0--0--0--0--0--0--0--|--0--0--0--0--0--0--0--0--|
 e|--------------------------|--------------------------|
/                                                        \
\                                                        /
 e|-----0-----0-----0-----0--|--0--0--0--0--0--0--0--0--|
 b|--12----12----12----12----|--15-15-15-15-17-17-17-17-|
 g|--------------------------|--------------------------|
 d|--------------------------|--------------------------|
 a|--------------------------|--------------------------|
 e|--------------------------|--------------------------|
     bed___________             in          your 
 
  
  Interlude (Guitar 1 plays fig. 1)

     Guitar 2                                              
 e|----------------------------|--------------------------||
 b|----------------------------|--------------------------||
 g|--------------------------7-p-6------------------------||
 d|-------------7--9-p-7--9----|----9-p-7--9-----9-----9--||
 a|--7--9-/-10-----------------|-------------10-----9-----||
 e|----------------------------|--------------------------||
 
 e|----------------------------|--------------------------|
 b|----------------------------|--------------------------|
 g|--------------------------7-p-6------------------------|
 d|-------------7--9-p-7--9----|----9-p-7--9-----9-----9--|
 a|--7--9-/-10-----------------|-------------10-----9-----|
 e|----------------------------|--------------------------|
                                                            
 e|----------------------------|--------------------------|
 b|--------------------------8-|-7------------------------|
 g|----------------------------|----9--7--9-----7---------|
 d|-------------7--9-p-7--9----|-------------9---------9--|
 a|--7--9-/-10-----------------|-------------------10-----|
 e|----------------------------|--------------------------|
 
  
  Outro (Guitar 1 plays fig. 1)                              
 
      Guitar 2                                             
 e||--------------------------|------------------------------|
 b||--------------------------|------------------------------|
 g||--------------------------|------------------------------|
 d||--------------------------|------------------------------|
 a||--7--7--7--7--7--7--9--9--|--10--10--10--10--9--9--9--9--|
 e||--------------------------|------------------------------|
      Ah___________________________________________________   
                                                          
 e|------------------------------|--------------------------||
 b|------------------------------|--------------------------||
 g|------------------------------|--------------------------||
 d|--7--7--7--7------------------|--9--9--9--9--7--7--7--7--||
 a|--------------10--10--10--10--|--------------------------||
 e|------------------------------|--------------------------||
     ______________________________________________________
   
 e|--0--|
 b|--0--|
 g|--9--|
 d|--9--|
 a|--7--|
 e|--0--|

 / slide
 
 p pull-off
 
 || repeat bars
Comments