Queens Of The Stone Age - I Never Came Chords & Tabs

 

I Never Came Chords & Tabs

Queens Of The Stone Age Chords & Tabs

Version: 3 Type: Tab 0 ratings
1 star 2 stars 3 stars 4 stars 5 stars
comments

I Never Came Tab

Queens of the Stone Age
"I Never Came"
Lullabies to Paralyze (2005)
Rekords Records

Easy. Two guitars aren't necessary, but they're definitely in there.

:Verse 1:

Riff 1 (Both Guitars)
e|----------------------------------------------|
B|----------------------------------------------|
G|----------------------------------------------|
D|-99999999-77777777-77777777-------------------|
A|-77777777-77777777-55555555-22222222----------|
E|----------------------------00000000----------| x10

:Chorus 1:

Riff 2 (Guitar 1)
e|-0000000000000000-0000000000000000------------|
B|-8888888888888888-0000000000000000------------|
G|-9999999999999999-5555555555555555------------|
D|-9999999999999999-5555555555555555------------|
A|-7777777777777777-3333333333333333------------|
E|----------------------------------------------|

Guitar 2 (Not perfect, so just try to go with the strum pattern)
e|---00---00-0-0-0----00---00-0-0-0-------------|
B|-0---0-0--0-0-0-0-0---0-0--0-0-0-0------------|
G|----------------------------------------------|
D|----------------------------------------------|
A|----------------------------------------------|
E|----------------------------------------------|

Guitar 1
e|-0000000000000000-0000000000000000------------|
B|-0000000000000000-8888888888888888------------|
G|-2222222222222222-9999999999999999------------|
D|-2222222222222222-9999999999999999------------|
A|-0000000000000000-7777777777777777------------|
E|----------------------------------------------|

Guitar 2
e|---0---0-----0--0---00---00-0-0-0-------------|
B|----0-0--0-0--0---0---0-0--0-0-0-0------------|
G|----------------------------------------------|
D|----------------------------------------------|
A|----------------------------------------------|
E|----------------------------------------------| x2

:Bridge:

Riff 3 (Over Riff 1)
e|----------------------------------------------|
B|---------------3-2----------------------------|
G|-------2-4-2-4-----4-2-4-0-4---4--------------|
D|-2-4-5-----------------------4----------------|
A|----------------------------------------------|
E|----------------------------------------------|

e|----------------------------------------------|
B|---------------3-2----------------------------|
G|-------2-4-2-4-----4-2-4-0-4---4--------------|
D|-2-4-5-----------------------4----------------|
A|----------------------------------------------|
E|----------------------------------------------|

e|---------------3-2-0---0----------------------|
B|---------------------3-----3------------------|
G|-------2-4-2-4-----------4---0-4--------------|
D|-2-4-5----------------------------2-----------|
A|----------------------------------2-----------|
E|----------------------------------0-----------|

:Verse 2:

-Same as Verse 1 except these fills come in over the main 
riff on a second guitar at (~2:30).
[ Tab from: http://www.guitartabs.cc/tabs/q/queens_of_the_stone_age/i_never_came_tab_ver_3.html ]
e|-------------------------------7-7-7-7--------|
B|-----------7-8--------7----7-----------8-8-8-8|
G|-7h9-9-9-9------6--6^7-6^7---6~---------------|
D|----------------------------------------------|
A|----------------------------------------------|
E|----------------------------------------------|

e|----------------------------------------------|
B|-----------7-8--------7---7----8-8-8-8-7-7-7-7|
G|-7h9-9-9-9------6--6^7-6^7---6~---------------|
D|----------------------------------------------|
A|----------------------------------------------|
E|----------------------------------------------|

e|-------------------------------7-7-7-7--------|
B|-----------7-8--------7---7------------8-8-8-8|
G|-7h9-9-9-9------6--6^7-6^7---6~---------------|
D|----------------------------------------------|
A|----------------------------------------------|
E|----------------------------------------------|

e|-------------------------------7-7-7-7-5-5-5-5|
B|-----------7-8-------------7------------------|
G|-7h9-9-9-9------6--6^7-6^7---6~---------------|
D|----------------------------------------------|
A|----------------------------------------------|
E|----------------------------------------------| x1

:Break:

-Same chord progression as verse, ust play the chords singularly

:Chorus/Outro:

Riff 3 (Over Riff 1 until end)
e|----------------------------------------------|
B|---------------3-2----------------------------|
G|-------2-4-2-4-----4-2-4-0-4---4--------------|
D|-2-4-5-----------------------4----------------|
A|----------------------------------------------|
E|----------------------------------------------|

e|----------------------------------------------|
B|---------------3-2----------------------------|
G|-------2-4-2-4-----4-2-4-0-4---4--------------|
D|-2-4-5-----------------------4----------------|
A|----------------------------------------------|
E|----------------------------------------------| x2

e|---------------3-2-0---0----------------------|
B|---------------------3-----3------------------|
G|-------2-4-2-4-----------4---0-4--------------|
D|-2-4-5----------------------------------------|
A|----------------------------------------------|
E|----------------------------------------------|

e|---------------3-2-0---0----------------------|
B|---------------------3-----3------------------|
G|-------2-4-2-4-----------4---0-4--------------|
D|-2-4-5----------------------------------------|
A|----------------------------------------------|
E|----------------------------------------------| until end

Rhythm guitar play this from (4:32) until end:

e|----------------------------------------------|
B|----------------------------------------------|
G|----------------------------------------------|
D|-55555555-------------------------------------|
A|-33333333-------------------------------------|
E|----------------------------------------------|
Comments