Queens Of The Stone Age - I Never Came Chords & Tabs

 

I Never Came Chords & Tabs

Queens Of The Stone Age Chords & Tabs

Version: 1 Type: Bass Tab 0 ratings
1 star 2 stars 3 stars 4 stars 5 stars
comments

I Never Came Bass Tab

Queens of the Stone Age
I Never Came
Lullabies To Paralyze

Tabbed by:Tom Huylebroeck
Datum	:06/03/05

 Verse
first time:
G ------------------------------------------------|
D ------------------------------------------------|
A -7------7/4------2h4h5-------/7-----------------|
E --------------------------------3----3h5-0------|

then
G ------------------------------------------------|
D ------------------------------------------------|x8
A --------7/4------2h4h5-------/7-----------------|
E -0------------------------------3----3h5-0------|

Chorus
[ Tab from: http://www.guitartabs.cc/tabs/q/queens_of_the_stone_age/i_never_came_btab.html ]
G ----------------------------------------------------------------------|
D ----------------------------------------------------------------------|
A -7777777777777777-3333333333333333------------------------------------|
E -----------------------------------5555555555555555-0000000000000000--|

G ------------------------------------------------------|
D ------------------------------------------------------|
A -7777777777777777-3333333333333333--------------------|
E -----------------------------------5555555555555555-0-|

then
G ------------------------------------------------|
D ------------------------------------------------|
A -7------7/4------/12/5-------/12--10--9--7------|
E ------------------------------------------------|

G ------------------------------------------------|
D ------------------------------------------------|
A -7------7/14-12-----/12/5-------/7--------------|
E -----------------------------------3---3h5-0----|

corrections? (tom.huylebroeck@scarlet.be)
Comments