Queens Of The Stone Age - How To Handle A Rope Chords & Tabs

 

How To Handle A Rope Chords & Tabs

Queens Of The Stone Age Chords & Tabs

Version: 1 Type: Bass Tab 0 ratings
1 star 2 stars 3 stars 4 stars 5 stars
comments

How To Handle A Rope Bass Tab

Band- Queens Of The Stone Age
Song- How To Handle A Rope

Tuning: Down 2 Whole Steps to C (C-F-Bb-Eb)

Intro:
Eb|------------------------------------------------------||
Bb|------------------------------------------------------||
 F|---------------------------12-12-12\------12-12-12\---||
 C|---5-5-5\------5-5-5\---------------------------------||


Riff 1:
Eb|----------------------------------------||
Bb|----------------------------------------||
 F|----------------------------------------||
 C|---5-5-5-5-5-5-3--8-8-8-8-8-8-8-8-8-8---||

[ Tab from: http://www.guitartabs.cc/tabs/q/queens_of_the_stone_age/how_to_handle_a_rope_btab.html ]
Riff 2:
Eb|-----------------------------------------------||
Bb|-----------------------------------------------||
 F|---12-12-12-12-12-12-10------------------------||
 C|-------------------------8-8-8-8-8-8-8-8-8-8---||


Chorus Riff:
Eb|-----------------------------------------------------------------------------||
Bb|-----------------------------------------------------------------------------||
 F|-------------------------------------12-10-------12-10-----------------------||
 C|---5-5-5-5-5-5-8--8-8-8-8-8-8--9-9-9-------9-9-9-------3-3-3-3-3-3-3-3-3-3---||


Riff 3:
Eb|-----------------------------------------||
Bb|-----------------------------------------||
 F|-----------------------------------------||
 C|---5-5-7-7-9-9-11-11-13-13-13-13-13-13---||
Comments