Queens Of The Stone Age - Hanging Tree Chords & Tabs

 

Hanging Tree Chords & Tabs

Queens Of The Stone Age Chords & Tabs

Version: 2 Type: Bass Tab 0 ratings
1 star 2 stars 3 stars 4 stars 5 stars
comments

Hanging Tree Bass Tab

Band- Queens Of The Stone Age
Song- Hanging Tree

P = pull off
\ = slide down
^ = bend this notes
~ = let ring
Intro Riff

 |------variation-1-----|------variation-2-------|-------variation-3---------|
G|----------------------|------------------------|---------------------------|
D|----------------------|------------------------|---------------------|1----|0x
A|--15p0~-15p0~--15^17--|--15p0-0-15p0-0—15p0-17-|--15-00-15-00—15-17----|
E|----------------------|------------------------|---------------------------|

Bridge

G|----------------|
D|----------------|
A|--12-12\--------|
E|----------------|


Verse 1
               4x
G|----------------|------------------------------------------|
D|----------------|------------------------------------------| 2x
A|------12-12\----|------8-88-8-8-8-88-8-8-7-77-7-7-6-66-----|
E|-8-10-----------|-8-10-------------------------------------|


G|----------------|
D|----------------| 2x
A|------12-12\----|
E|-8-10-----------|


|------------------------------------------------------------|
D|--------10-1010-10-10-9-99-9-9-12-1212-12-14-11-1111-11-12-|
A|-----------------------------------------------------------|
E|--8-10-----------------------------------------------------|
[ Tab from: http://www.guitartabs.cc/tabs/q/queens_of_the_stone_age/hanging_tree_btab_ver_2.html ]
G|-----------------------------------------------------------|
D|--10-1010-10-12-9-99-9-11-12-1212-12-14-11-1111-11-12------| 3x
A|-----------------------9-----------------------------------|
E|-----------------------------------------------------------|

G|-----------------------------------------------------------|
D|-----------------------------------------------------------|
A|-----------------------------------------------------------|
E|--8-8-88-8-8-88-7-7-77-7-7-8-10----------------------------|

·	Play Intro Riff 4x
·	Play Bridge 1x
·	Play Verse 1 again
·	Play Intro Riff 4x
·	Play Bridge 1x

Verse 2

G|----------------|
D|--10------------| 10x
A|--------12-12\--|
E|-----11---------|

G|-----------------------------------------------------------|
D|--10----10-1010-10-10-9-99-9-9-12-1212-12-14-11-1111-11-12-|
A|-----------------------------------------------------------|
E|-----11----------------------------------------------------|

G|-----------------------------------------------------------|
D|--10-1010-10-12-9-99-9-11-12-1212-12-14-11-1111-11-12------| 3x
A|-----------------------9-----------------------------------|
E|-----------------------------------------------------------|

G|-----------------------------------------------------------|
D|-----------------------------------------------------------|
A|-----------------------------------------------------------|
E|--8-88-8-8-8-88-8-8-7-77-7-7-7-77-7-7----------------------|


Play Intro Riff 4x
Comments