Queens Of The Stone Age - Gonna Leave You Chords & Tabs

 

Gonna Leave You Chords & Tabs

Queens Of The Stone Age Chords & Tabs

Version: 1 Type: Bass Tab 0 ratings
1 star 2 stars 3 stars 4 stars 5 stars
comments

Gonna Leave You Bass Tab

   
Band- Queens Of The Stone Age
Song- Gonna Leave You

Intro

G|-----------------------------------------------------|
D|-----------------------------------------------------|
A|-----------------------------------------------------|
E|-12~-7-7-7-7-7-7-7-7-7-7-7-7-7-7-7-7-7-7-7-7-7-7-7h7-|

G|-----------------------------------------|
D|-----------------------------------------|
A|-----------------------------------------|
E|-10-10-10-10-10-10-10-10-7-7-7-7-7-7-7-7-|

G|-----------------------------------|
D|-----------------------------------|
A|-----------------------------------|
E|-12-12h12-12-12h12-7-7-7-7-7-7-7h7-|

G|-----------------------------------------|
D|-----------------------------------------|
A|-----------------------------------------|
E|-10-10-10-10-10-10-10-10-7-7-7-7-7-7-7-7-|

G|-----------------|
D|-----------------|
A|-----------------|
E|-7-7-7-7-7-7-7-7-|

Verse

G|-----------------------------------------|
D|-----------------------------------------|
A|-----------------------------------------|
E|-7-7-7-7-7-7-7h7-10-10-10-10-10-10-10-10-|

G|---------------------------------------------------|
D|---------------------------------------------------|
A|---------------------------------------------------|
E|-7-7-7-7-7-7-7-7-12-12h12-12-12h12-7-7-7-7-7-7-7h7-|

G|-----------------------------------------|
D|-----------------------------------------|
A|-----------------------------------------|
E|-10-10-10-10-10-10-10-10-7-7-7-7-7-7-7-7-|
[ Tab from: http://www.guitartabs.cc/tabs/q/queens_of_the_stone_age/gonna_leave_you_btab.html ]
                    *Start at this point after interlude
G|-----------------|---------------------------------|
D|-----------------|---------------------------------|
A|-----------------|---------------------------------|
E|-7-7-7-7-7-7-7-7-|-7-7-7-7-7-7-7-7-6-6-0h6-6-6-0h6-| 

G|-------------------------------------------------|
D|-------------------------------------------------|
A|-------------------------------------------------|
E|-7-7-7-7-7-7-7-7-6-6-0h6-6-6-0h6-7-7-7-7-7-7-7-7-|

G|-------------------------------------------------------|
D|-------------------------------------------------------|
A|-------------------------------------------------------|
E|-6-6-0h6-6-6-0h6-7-7-0h7-7-7-0h7-11-11-0h11-11-11-0h11-|

Chorus:

G|---------------------------------------------|
D|---------------------------------------------|
A|---------------------------------------------|
E|-7-7-7-7-7-7-7-7-7h7-10-10-10-10-10-10-10-10-|

G|---------------------------------------------------|
D|---------------------------------------------------|
A|---------------------------------------------------|
E|-7-7-7-7-7-7-7-7-12-12h12-12-12h12-7-7-7-7-7-7-7h7-|
	
G|-----------------------------------------|
D|-----------------------------------------|
A|-----------------------------------------|
E|-10-10-10-10-10-10-10-10-7-7-7-7-7-7-7-7-|

G|-----------------|
D|-----------------|
A|-----------------|
E|-7-7-7-7-7-7-7-7-|

Interlude:

G|---------------------------------------|
D|---------------------------------------|
A|---------------------------------------|
E|-7-0-7-0-7-0-7-7-7-6-0h6-0h6-0h6-h6-h6-|

Order:

Intro x1
Verse x1
Chorus x1
Verse x1
Chorus x2
Interlude x4
Mid verse x1
Chorus x2
Comments