Queens Of The Stone Age - Go With The Flow Chords & Tabs

 

Go With The Flow Chords & Tabs

Queens Of The Stone Age Chords & Tabs

Version: 8 Type: Tab 0 ratings
1 star 2 stars 3 stars 4 stars 5 stars
comments

Go With The Flow Tab

   
Queens of the Stone Age
Go With The Flow
Songs for the Deaf
Tabd by 3N

DROP-C TUNING: C F Bb Eb G C

Guitar 1:
C ---------------------------------------------------------
F ---------------------------------------------------------
Bb------------------------------------8-8-8-8-8--6-6-6-6-6-
Eb---6-6-6-6-6-6-6-6-6-6-6-6-6-6-6-6--8-8-8-8-8--4-4-4-4-4-
G ---6-6-6-6-6-6-6-6-6-6-6-6-6-6-6-6--6-6-6-6-6--4-4-4-4-4-
C ---4-4-4-4-4-4-4-4-4-4-4-4-4-4-4-4-----------------------

Guitar 2:
C -----16/19\16-------------------------16/18-19-18-16-21^-
F ---14--------16-16--16-17-19-17-16--16-------------------
Bb---------------------------------------------------------
Eb---------------------------------------------------------
G ---------------------------------------------------------
C ---------------------------------------------------------
[ Tab from: http://www.guitartabs.cc/tabs/q/queens_of_the_stone_age/go_with_the_flow_tab_ver_8.html ]
The Rest of the song is mostly this:
C ---------------------------------------------------------
F ---------------------------------------------------------
Bb------------------------------------8-8-8-8-8--6-6-6-6-6-
Eb---6-6-6-6-6-6-6-6-6-6-6-6-6-6-6-6--8-8-8-8-8--4-4-4-4-4-
G ---6-6-6-6-6-6-6-6-6-6-6-6-6-6-6-6--6-6-6-6-6--4-4-4-4-4-
C ---4-4-4-4-4-4-4-4-4-4-4-4-4-4-4-4-----------------------

Except for the very last part of the chorus which goes:
C ---------------------------------------------------------
F ---------------------------------------------------------
Bb------------------------------------8-8-8-8-8--1111111111
Eb---6-6-6-6-6-6-6-6-6-6-6-6-6-6-6-6--8-8-8-8-8--1111111111 <--Those are 11's
G ---6-6-6-6-6-6-6-6-6-6-6-6-6-6-6-6--6-6-6-6-6--9-9-9-9-9-
C ---4-4-4-4-4-4-4-4-4-4-4-4-4-4-4-4-----------------------

And at the end of the song Guitar 2 goes:
C --/19\11/19\16-----/19\11/19\16-----/19\11/19\16---
F ---------------------------------------------------
Bb---------------------------------------------------
Eb---------------------------------------------------
G ---------------------------------------------------
C ---------------------------------------------------

C --19--21--20-----19--21--20-----19--21--21^--------
F ---------------------------------------------------
Bb---------------------------------------------------
Eb---------------------------------------------------
G ---------------------------------------------------
C ---------------------------------------------------

[Where it says to bend 21 you can also just play fret 23]
Comments