Queens Of The Stone Age - Go With The Flow Chords & Tabs

 

Go With The Flow Chords & Tabs

Queens Of The Stone Age Chords & Tabs

Version: 6 Type: Tab 0 ratings
1 star 2 stars 3 stars 4 stars 5 stars
comments

Go With The Flow Tab

E| ---------------------------------------------------------------------------
B| ---------------------------------------------------------------------------
G| 1-1-1-1-1-1-1-1-1-1-1-1-1-1-1--------5--5---5--5---5---5--5----------------
D| 2-2-2-2-2-2-2-2-2-2-2-2-2-2-2--------5--5---5--5---5---5--5----------------
A| 2-2-2-2-2-2-2-2-2-2-2-2-2-2-2--------3--3---3--3---3---3--3----------------
E| 0-0-0-0-0-0-0-0-0-0-0-0-0-0-0---3-----------------------------0------------

E| ----------------------------------------------------
B| ----------------------------------------------------
G| 2-2-2-2-2-2-2-2----1-1-1-1-1-1-1-1-1-1-1-1-1-1-1----
D| 2-2-2-2-2-2-2-2----2-2-2-2-2-2-2-2-2-2-2-2-2-2-2----
A| 0-0-0-0-0-0-0-0----2-2-2-2-2-2-2-2-2-2-2-2-2-2-2----
E| -------------------0-0-0-0-0-0-0-0-0-0-0-0-0-0-0---3
[ Tab from: http://www.guitartabs.cc/tabs/q/queens_of_the_stone_age/go_with_the_flow_tab_ver_6.html ]
Comments