Queens Of The Stone Age - Go With The Flow Chords & Tabs

 

Go With The Flow Chords & Tabs

Queens Of The Stone Age Chords & Tabs

Version: 3 Type: Tab 4 ratings
1 star 2 stars 3 stars 4 stars 5 stars
comments

Go With The Flow Tab

********************************************************************************
                     Go With The Flow  BY  Queens of the Stone age
********************************************************************************

TAbbed By Drake182

*This tab is 100% correct* 

Intro

|-----------------------------------|----------------------------------------|
|-----------------------------------|----------------------------------------|
|--1-1-1-1-1-1-1-1--1-1-1-1-1-1-1---|----5-5-5-5-5-5-5-------2-2-2-2-2-2-2-2-|
|--2-2-2-2-2-2-2-2--2-2-2-2-2-2-2---|----5-5-5-5-5-5-5-------2-2-2-2-2-2-2-2-|
|--2-2-2-2-2-2-2-2--2-2-2-2-2-2-2---|----3-3-3-3-3-3-3-------0-0-0-0-0-0-0-0-|
|--0-0-0-0-0-0-0-0--0-0-0-0-0-0-0---|--3-----------------0-------------------|

|-----------------------------------|
|-----------------------------------|
|--1-1-1-1-1-1-1-1--1-1-1-1-1-1-1---|
|--2-2-2-2-2-2-2-2--2-2-2-2-2-2-2---|
|--2-2-2-2-2-2-2-2--2-2-2-2-2-2-2---|
|--0-0-0-0-0-0-0-0--0-0-0-0-0-0-0--3|


                                                                1/2 s     1 s
|----------12/15--12~--------|------------------|------12/14---14b--------17b-|
|-------------------------12-|--12-13-15-13--12-|--------------------17-------|
|--12--13--------------------|------------------|--12-------------------------|
|----------------------------|------------------|-----------------------------|
|----------------------------|------------------|-----------------------------|
|----------------------------|------------------|-----------------------------|

 Verse ( chords from intro overlapping )

|-------------------------|--15-------12-12-12-12-12-12-12-12-12-12-12-12-12\-|
|--12-13-15-13--12~-------|-------12------------------------------------------|
|---------------------12--|---------------------------------------------------|
|-------------------------|---------------------------------------------------|
|-------------------------|---------------------------------------------------|
|-------------------------|---------------------------------------------------|

|-------------------------|---------------------|
|--13---------------------|-----------------12--|
|-------------------------|--14-----------------|
|-------------------------|---------------------|
|-------------------------|---------------------|
|-------------------------|---------------------|


Chorus  (finger pick)

|--12---------------|--------------------|------------------|
|-------------------|--15----------------|--12--------------|
|--12---------------|--------------------|--13--------------|
|-------------------|--14----------------|------------------|
|-------------------|--------------------|------------------|
|-------------------|--------------------|------------------|
[ Tab from: http://www.guitartabs.cc/tabs/q/queens_of_the_stone_age/go_with_the_flow_tab_ver_3.html ]
Guitar 2 (Overlap G1)
|-------------------|-------------------|---------------------|
|-------------------|-------------------|---------------------|
|--5-5-5-5-5-5-5-5--|--7-7-7-7-7-7-7-7--|--1-1-1-1-1-1-1-1----|
|--5-5-5-5-5-5-5-5--|--7-7-7-7-7-7-7-7--|--2-2-2-2-2-2-2-2----|
|--3-3-3-3-3-3-3-3--|--5-5-5-5-5-5-5-5--|--2-2-2-2-2-2-2-2----|
|--3-3-3-3-3-3-3-3--|--5-5-5-5-5-5-5-5--|--0-0-0-0-0-0-0-0--3-|


Verse

|---------------------|-------------------------|--15------------------12----|
|------12-------12/9--|--8-------8/7--------5\--|------------12--------------|
|---------------------|-------------------------|----------------------------|
|--14------14---------|-------------------------|----------------------------|
|---------------------|-------------------------|----------------------------|
|---------------------|-------------------------|----------------------------|

    1s         1s  

|---------------------|----------------------|
|--15b----------------|----------------------|
|--------------14b----|----------------------|
|--------14-----------|--14/12---------------|
|---------------------|----------12/10-------|
|---------------------|------------------10--|


( Chorus x2 )


Outro x2

|--15----------|------------|--12-12-12-12-12-12-12-12-12-12-12-12-12-12-12-12-|
|--12----------|-12---------|--------------------------------------------------|
|--------------|------------|--------------------------------------------------|
|--------------|------------|--------------------------------------------------|
|--------------|------------|--------------------------------------------------|
|--------------|------------|--------------------------------------------------|


Then x3

|--15-15-15-15-15-15-15-15-|-17-17-17-17-17-17-17-17-|-16-16-16-16-16-16-16-16-|
|--------------------------|-------------------------|-------------------------|
|--------------------------|-------------------------|-------------------------|
|--------------------------|-------------------------|-------------------------|
|--------------------------|-------------------------|-------------------------|
|--------------------------|-------------------------|-------------------------|

                                                                          
|--15-15-15-15-15-15-15-15-|-17-17-17-17-17-17-17-17--|--18-18-18-18-18-18--|  
|--------------------------|--------------------------|---------------------|
|--------------------------|--------------------------|---------------------|
|--------------------------|--------------------------|---------------------|
|--------------------------|--------------------------|---------------------|
|--------------------------|--------------------------|---------------------|

|--18-18-18-18-18/-----|
|----------------------|
|----------------------|
|----------------------|
|----------------------|
|----------------------|


 BOO YA!!

Comments