Queens Of The Stone Age - Go With The Flow Chords & Tabs

 

Go With The Flow Chords & Tabs

Queens Of The Stone Age Chords & Tabs

Version: 12 Type: Tab 0 ratings
1 star 2 stars 3 stars 4 stars 5 stars
comments

Go With The Flow Tab

   
-----------------------------------------------------------------------------
     Go With the Flow - Queens of the Stone Age
-----------------------------------------------------------------------------
Tabbed by: AudaciousMoose
Email: Desule@hotmail.com

Tuning: C F Bb Eb G C (You can play this tab in E A D G B E if you want)

This is my first tab...but it should be dead on.  I tried to position the lyrics so that 

the notes and the lyrics come in the order they come in in the song.  This is an awesome 

riff.  The lead guitar looks difficult, but it is fairly easy.  

-----------------------------------------------------------------------------

Riff for Rhythm Guitar:

c |-----------------------------------------------------------------|
G |-----------------------------------------------------------------|
Eb|----------------------------------9-9-9-9-9-9-9-9-6-6-6-6-6-6-6-6|
Bb|--6-6-6-6-6-6-6-6-6-6-6-6-6-6-6-6-9-9-9-9-9-9-9-9-6-6-6-6-6-6-6-6|
F |--6-6-6-6-6-6-6-6-6-6-6-6-6-6-6-6-7-7-7-7-7-7-7-7-4-4-4-4-4-4-4-4|
C |--4-4-4-4-4-4-4-4-4-4-4-4-4-4-4-4--------------------------------|

Surprisingly, the Rhythm Guitar's riff stays the same throughout the song.

-----------------------------------------------------------------------------

Verse for Lead Guitar:

c |------------19------------------------------|
G |--------21-------21----16~---16-17-19-17--16|
Eb|--16/18-------------------------------------|
Bb|--------------------------------------------|
F |--------------------------------------------|
C |--------------------------------------------|

c |-----------18-18b19--18-16-21b23\|
G |--------21-----------------------|
Eb|--16/18--------------------------|
Bb|---------------------------------|
F |---------------------------------|
C |---------------------------------|

   "She said 'I'll throw myself away."
c |---------------------------------------------------------|
G |------------------------------------------16-17-19-17--16|
Eb|---------------------------------------------------------|
Bb|---------------------------------------------------------|
F |---------------------------------------------------------|
C |---------------------------------------------------------|

   "They're just photos after all.'
          I can't make you hang around."
c |--19---------------------------16-----|
G |---------------16---------------------|
Eb|--------------------------------------|
Bb|--------------------------------------|
F |--------------------------------------|
C |--------------------------------------|

   "I can't wash you off my skin.
         Outside the frame  .   .   .  is what we're leavin' out."
c |----------------------------------------------------------------|
G |--17-----------------------------16-----------------------------|
Eb|-------------------18-------------------------------------------|
Bb|----------------------------------------------------------------|
F |----------------------------------------------------------------|
C |----------------------------------------------------------------|

"You won't remember anyway."

-----------------------------------------------------------------------------

Chorus for Lead Guitar:

   I can go     .            .          .     with the flow."
c |---------19--(16)--(19)-------14--(11)--(14)------------------|
G |--------(16)-(16)--(16)------(11)-(11)--(11)----------------16|
Eb|---------16--(16)--(16)-------11--(11)--(11)----------------13|
Bb|--------------------------------------------------------------|
F |--------------------------------------------------------------|
C |--------------------------------------------------------------|

*Notes in parentheses are optional.  You can just let first octave ring if you prefer that.
 
Repeat these chords throughout chorus.

Other lyrics for chorus:


"But don't say it doesn't matter anymore.
I can go with the flow.
Do you believe it in your head?"


-----------------------------------------------------------------------------

Verse for Lead Guitar:

   "It's so safe to play along."
c |-------------------------------------------------------------|
G |--------------------------------------16----16---13---(9)pb12|
Eb|-----------------------------------13----13------------------|
Bb|-------------------------------------------------------------|
F |-------------------------------------------------------------|
C |-------------------------------------------------------------|

         "Little soldiers in a row."
c |----------------------------------|
G |--(9)pb12---(9)pb12r11---(9)pb11r9|
Eb|----------------------------------|
Bb|----------------------------------|
F |----------------------------------|
C |----------------------------------|
[ Tab from: http://www.guitartabs.cc/tabs/q/queens_of_the_stone_age/go_with_the_flow_tab_ver_12.html ]
   "Falling in and out of love.
       With somethin' sweet to throw away."
c |--19------------------------------------(15)pb16r15-----------------------|
G |--------------------------16-------------------------15b16----------------|
Eb|---------------------------------------------------13-----13--------------|
Bb|-------------------------------------------------------------16-13--------|
F |------------------------------------------------------------------16------|
C |---------------------------------------------------------------------14--16|

   "I want somethin' good to die for."
c |----------------------------------------------------------------|
G |----------------------------------------------------------------|
Eb|-------------------------------------(13)pb15r13----------------|
Bb|----------------------------------------------------------------|
F |----------------------------------------------------------------|
C |----------------------------------------------------------------|

   "To make it beautiful to live.
   I want a new mistake, lose is more than hesitate.
         Do you believe it in your head?"
c |--19*-----------------------------------------------------------|
G |----------(22)pb23*--------------(21)**-------------------------|
Eb|----------------------------------------------------------------|
Bb|----------------------------------------------------------------|
F |----------------------------------------------------------------|
C |----------------------------------------------------------------|

*These notes must ring at the same time, so you have to play the second note on the G 

string with the bend.

**This note is optional.

-----------------------------------------------------------------------------

Chorus for Lead Guitar:

   I can go     .            .          .     with the flow."
c |---------19--(16)--(19)-------14--(11)--(14)------------------|
G |--------(16)-(16)--(16)------(11)-(11)--(11)----------------16|
Eb|---------16--(16)--(16)-------11--(11)--(11)----------------13|
Bb|--------------------------------------------------------------|
F |--------------------------------------------------------------|
C |--------------------------------------------------------------|

*Notes in parentheses are optional.  You can just let first octave ring if you prefer that.
 
Repeat these chords throughout chorus.

Other lyrics for chorus:


"But don't say it doesn't matter anymore.
I can go with the flow.
Do you believe it in your head?"
-----------------------------------------------------------------------------

Outro for Lead Guitar:

c |---------19--(16)--(19)-------21--(19)--(21)---------------20--(20)--(20)|
G |--------(16)-(16)--(16)------(18)-(18)--(18)--------------(16)-(16)--(16)|
Eb|---------16--(16)--(16)-------18--(18)--(18)---------------17--(17)--(17)|
Bb|-------------------------------------------------------------------------|
F |-------------------------------------------------------------------------|
C |-------------------------------------------------------------------------|

The outro has the same rhythm as the chorus.

*Notes in parentheses are optional.  You can just let first octave ring if you prefer that.
-----------------------------------------------------------------------------

Ending Chords for Lead Guitar:

c |---------19--(16)--(19)-------21--(19)--(21)------------22b23|
G |--------(16)-(16)--(16)------(18)-(18)--(18)-----------------|
Eb|---------16--(16)--(16)-------18--(18)--(18)-----------------|
Bb|-------------------------------------------------------------|
F |-------------------------------------------------------------|
C |-------------------------------------------------------------|

-----------------------------------------------------------------------------

Alternate Way of Playing Chorus for Lead Guitar:

   I can go     .            .          .     with the flow."
c |---------19--(16)--(19)-------14--(11)--(14)---------------16--(14)--(16)|
G |--------(16)-(16)--(16)------(11)-(11)--(11)--------------(13)-(13)--(13)|
Eb|---------16--(16)--(16)-------11--(11)--(11)---------------13--(13)--(13)|
Bb|-------------------------------------------------------------------------|
F |-------------------------------------------------------------------------|
C |-------------------------------------------------------------------------|

-----------------------------------------------------------------------------

Alternate Way of Playing Main Riff and Chorus Riff for Rhythm Guitar:

c |-----------------------------------------------------------------|
G |-----------------------------------------------------------------|
Eb|----------------------------------9-9-9-9-9-9-9-9-6-6-6-6-6-6-6-6|
Bb|--6-6-6-6-6-6-6-6-6-6-6-6-6-6-6-6-9-9-9-9-9-9-9-9-6-6-6-6-6-6-6-6|
F |--6-6-6-6-6-6-6-6-6-6-6-6-6-6-6-6-7-7-----7-7-7-7-4-4-----4-4-4-4|
C |--4-4-4-4-4-4-4-4-4-4-4-4-4-4-4-4-----7-7-------------4-4--------|

This may, however, just be the bass line that is interfering.  

-----------------------------------------------------------------------------

| /   slide up
| \   slide down
| h   hammer-on
| p   pull-off
| ~   vibrato
| +   harmonic
| x   Mute note
| B   bend
| pb  pre-bend
| r   release
================================================================
Comments