Queens Of The Stone Age - Give The Mule What He Wants Chords & Tabs

 

Give The Mule What He Wants Chords & Tabs

Queens Of The Stone Age Chords & Tabs

Version: 2 Type: Tab

Give The Mule What He Wants Tab

   
*********************************************************
* QUEENS OF THE STONE AGE - GIVE THE MULE WHAT HE WANTS *
*********************************************************

Album: Queens Of The Stone Age (1998)
Words & Music By Joshua Homme

Transcribed by Juan Angel De Camillis

Tunning: Drop D

BASS INTRO

then

INTRO/CHORUS
e|--7-----7---------------------7-----7-------|
B|----10----10--------------10----10----10----|
G|--------------9--------------------------9--|
D|--------------------------------------------|
A|--------------------------------------------|
D|--------------------------------------------|
[ Tab from: http://www.guitartabs.cc/tabs/q/queens_of_the_stone_age/give_the_mule_what_he_wants_tab_ver_2.html ]
PRE VERSE RIFFS
    C5      A5       C5     A5         C5 A5    C5   C5 A5    C5      A5          C5
e|----------------------------------|----------------------------|--------------------|
B|----------------------------------|----------------------------|--------------------|
G|----------------------------------|----------------------------|------------0-------|
D|--10-10---7--7-7---10-10---7--7-7-|--10-7-7-7-10-x-10-7-7-7-10-|-10-7---7-----7-10--|
A|--10-10---7--7-7---10-10---7--7-7-|--10-7-7-7-10-x-10-7-7-7-10-|-10-7---7-7-----10--|
D|--10-10---7--7-7---10-10---7--7-7-|--10-7-7-7-10-x-10-7-7-7-10-|-10-7---7-7-----10--|


VERSE MAIN RIFF             VERSE RIFF VARIATION
        A5            C5         A5                   C5
e|----0-------------------|----0---------------------------|
B|------------------------|--------------------------------|
G|--7----------0----------|--7-----------0--------0--------|
D|------7--7-------7--10--|------7--7------7-10-7---7--10--|
A|------7--7--7-------10--|------7--7--7---------------10--|
D|------7--7--7-------10--|------7--7--7---------------10--|


SONG END
       A5
e|----0------|
B|-----------|
G|--7--------|
D|------7-7--|
A|------7-7--|
D|------7-7--|