Queens Of The Stone Age - Give The Mule What He Wants Chords & Tabs

 

Give The Mule What He Wants Chords & Tabs

Queens Of The Stone Age Chords & Tabs

Version: 1 Type: Bass Tab 0 ratings
1 star 2 stars 3 stars 4 stars 5 stars
comments

Give The Mule What He Wants Bass Tab

G|-------------------------------------------------------------------|
D|-------------5-----------------7p5---------------------------------|
A|----------7-----7----------------------7-6p5------------7-5-7------|
E|-----8-88----------5h0-5h0-5--------------------5--8-88--------5h0-|
[ Tab from: http://www.guitartabs.cc/tabs/q/queens_of_the_stone_age/give_the_mule_what_he_wants_btab.html ]
G|-------------------------------------------------------------------|
D|-------------------------------------------------------------------|
A|-------------------------------------------------------------------|
E|--5h0-5h0-----543210----------------------------------------------|



This is my first tab. I'm a guitar player not a bass player. If i fucked up
my email address is raystewart@hotmail.com hate mail is gleefully accepted
Thanks have fun with the tab and yay queens of the stone age. woo
Comments