Queens Of The Stone Age - Everybodys Gonna Be Happy Chords & Tabs

 

Everybodys Gonna Be Happy Chords & Tabs

Queens Of The Stone Age Chords & Tabs

Version: 1 Type: Tab 0 ratings
1 star 2 stars 3 stars 4 stars 5 stars
comments

Everybodys Gonna Be Happy Tab

   
Band- Queens Of The Stone Age
Song- Everybodys Gonna Be Happy

Verse
E---5-5--6--------5-5--6-66-6-6-----|
B---4-4--5--------4-4--5-55-5-5-----|
G---4-4--6--------4-4--6-66-6-6-----|
D-----------x~~~--------------------|
A-----------x~~~--------------------|
E-----------------------------------|

Verse Variation
E---5-5--\-12-1212-12-12---|
B---4-4--\-11-1111-11-11---|
G---4-4--\-11-1111-11-11---|
D--------------------------|
A--------------------------|
E--------------------------|

Chorus
E-55555555-55555555-00000000-44444444-|
B-55555555-55555555-00000000-44444444-|
G-66666666-66666666-11111111-55555555-|
D-77777777-77777777-22222222-66666666-|
A-77777777-77777777-22222222-66666666-|
E-55555555-55555555-00000000-44444444-|
[ Tab from: http://www.guitartabs.cc/tabs/q/queens_of_the_stone_age/everybodys_gonna_be_happy_tab.html ]
E-44444444-44444444-22222222-22222222-|
B-66666666-66666666-44444444-22222222-|
G-66666666-66666666-44444444-33333333-|
D-66666666-66666666-44444444-44444444-|
A-44444444-44444444-22222222-44444444-|
E----------------------------22222222-|

           OR
Chorus
E-00000000-00000000-00000000-44444444-|
B-22222222-22222222-00000000-11111111-|
G-22222222-22222222-11111111-11111111-|
D-22222222-22222222-22222222-11111111-|
A-00000000-00000000-22222222----------|
E-------------------00000000----------|

E-11111111-11111111-22222222-22222222-|
B-22222222-22222222-44444444-22222222-|
G-11111111-11111111-44444444-33333333-|
D-33333333-33333333-44444444-44444444-|
A-44444444-44444444-22222222-44444444-|
E----------------------------22222222-|
Comments