Queens Of The Stone Age - Everybodys Gonna Be Happy Chords & Tabs

 

Everybodys Gonna Be Happy Chords & Tabs

Queens Of The Stone Age Chords & Tabs

Version: 1 Type: Bass Tab 0 ratings
1 star 2 stars 3 stars 4 stars 5 stars
comments

Everybodys Gonna Be Happy Bass Tab

   
Band= Queens Of The Stone Age
Song- Everybodys Gonna Be Happy

Tuning: (C,F,Eb,Bb)


Intro

Bb-----------|
Eb-----------|  (x3)
F---5-5-7----|
C------------|


Verse 1

Bb---------------------------|
Eb----7-5----------------5---|
F----------7-5----3-5-3------|
C---5------------------------|

Bb---------------------------|
Eb----7-5----------------7---|
F----------7-5----5-7-5------|
C---5------------------------|

 keep on playing this until the chorus


Chorus
[ Tab from: http://www.guitartabs.cc/tabs/q/queens_of_the_stone_age/everybodys_gonna_be_happy_btab.html ]
Bb----------------------------------------------------5-7-|
Eb-------7-------------9-------------5----------7---------|
F------7---7---------9---9---------5---5------7-----------|
C---5--------------7-------------3-----------5------------|

I think you play this 4 times but im not to sure


Verse 2

Bb---------------------------|
Eb----7-5----------------5---|
F----------7-5----3-5-3------|
C---5------------------------|

Bb-----------------------------|
Eb----7-5----------------7-----|
F----------7-5----5-7-5--------|
C---5--------------------------|
Again play this to the chorus


Chorus

Bb----------------------------------------------------5-7-|
Eb-------7-------------9-------------5-----------7--------|
F------7---7---------9---9---------5---5------7-----------|
C---5--------------7-------------3-----------5------------|

I think you play this about 8 times

The whole song is about 2:33 so repeat as necessary
Comments