Queens Of The Stone Age - Everybody Knows That You Are Insane Chords & Tabs

 

Everybody Knows That You Are Insane Chords & Tabs

Queens Of The Stone Age Chords & Tabs

Version: 1 Type: Bass Tab 0 ratings
1 star 2 stars 3 stars 4 stars 5 stars
comments

Everybody Knows That You Are Insane Bass Tab

Band- Queens Of The Stone Age
Song- Everybody Knows That You Are Insane

G ||------------------|------------------|------------------|------------------|
D ||------------------|------------------|------------------|------------------|
A ||------------------|------------------|------------------|------------------|
D#||------------------|--7----7--7----7--|--6----6--6----6--|--3----3--3----3--|


                                                                             
------------------|--------------------|------------------|-----------------|
------------------|--------------------|------------------|----------4------|
------------------|--1----1--1/3-0--1--|--3----3--3----3--|-----------------|
--0----0--0----0--|--------------------|------------------|--3----3---------|


                                                                            
------------------|------------------|------------------|------------------|
------------------|------------------|------------------|------------------|
------------------|------------------|------------------|------------------|
--3----3--3----3--|--7----7--7----7--|--6----6--6----6--|--3----3--3----3--|


                                                                             
------------------|--------------------|----------5----0--|-----------------|
------------------|--------------------|------------------|--4--------------|
------------------|--1----1--1/3-0--1--|--3----3----------|---------4----4--|
--0----0--0----0--|--------------------|------------------|-----------------|


                                                                            
------------------|------------------|------------------|------------------|
------------------|------------------|------------------|------------------|
------------------|------------------|------------------|------------------|
--3----3--3----3--|--7----7--7----7--|--6----6--6----6--|--3----3--3----3--|


                                                                              
------------------|--------------------|------------------|------------------|
------------------|--------------------|------------------|----------4----4--|
------------------|--1----1--1/3-0--1--|--1b---3--3----3--|------------------|
--0----0--0----0--|--------------------|------------------|--3----3----------|


                                                                            
------------------|------------------|------------------|------------------|
------------------|------------------|------------------|------------------|
------------------|------------------|------------------|------------------|
--3----3--3----3--|--7----7--7----7--|--6----6--6----6--|--3----3--3----3--|


                                                           
------------------|--------------------|---------------1--|
------------------|--------------------|------------------|
------------------|--1----1--1/3-0--1--|--1b---3--3-------|
--0----0--0----0--|--------------------|------------------|


                                                                             
----------------------|------------------|----------------------------------|
--4--4-4-4------------|------------------|----------------------------------|
------------4--4-4-4--|------------------|--1-1-1-1-1-1-1-1-1-1-1-1-1-1-1-1-|
----------------------|--3----3--3----3--|----------------------------------|


                                                                  
----------------------------------|------------------------------|
----------------------------------|------------------------------|
--0-0-0-0-0-0-0-0-----------------|------------1-------------1---|
------------------3-3-3-3-3-3-3-3-|--0-0-0-0-0-----0-0-0-0-0-----|


                                                                 
-----------------------------|----------------------------------|
-----------------------------|----------------------------------|
------------1----------------|--1-1-1-1-1-1-1-1-1-1-1-1-1-1-1-1-|
--0-0-0-0-0-----0-0-0-0-0----|----------------------------------|


                                                                  
----------------------------------|------------------------------|
----------------------------------|------------------------------|
--0-0-0-0-0-0-0-0-----------------|------------1-------------1---|
------------------3-3-3-3-3-3-3-3-|--0-0-0-0-0-----0-0-0-0-0-----|


                                                             
-----------------------------|------------------------------|
-----------------------------|------------------------------|
------------1----------------|--1-1--1-1-1--1-1-1--1-1-1--0-|
--0-0-0-0-0-----0-0-0-0-0----|------------------------------|


                                                                  
------------------------------|----------------------------------|
------------------------------|----------------------------------|
--0-0--0-0-0--0-0-0--0-0-0--0-|----------------------------------|
------------------------------|--3-3-3-3-3-3-3-3-3-3-3-3-3-3-3-3-|


                                                                 
---------------------------------|------------------------------|
---------------------------------|------------------------------|
----------------------------1----|--1-1--1-1-1--1-1-1--1-1-1--3-|
--0-0-0-0-0-0-0-0-0-0-0-0-0----0-|------------------------------|


                                                                  
------------------------------|----------------------------------|
------------------------------|----------------------------------|
--3-3--3-3-3--3-3-3--3-3-3--3-|----------------------------------|
------------------------------|--3-3-3-3-3-3-3-3-3-3-3-3-3-3-3-3-|


                                                                  
----------------------------------|------------------------------|
----------------------------------|------------------------------|
----------------------------------|--1-1--1-1-1--1-1-1--1-1-1--0-|
--3-3-3-3-3-3-3-3-3-3-3-3-3-3-3-3-|------------------------------|


                                                                  
------------------------------|----------------------------------|
------------------------------|----------------------------------|
--0-0--0-0-0--0-0-0--0-0-0--0-|----------------------------------|
------------------------------|--3-3-3-3-3-3-3-3-3-3-3-3-3-3-3-3-|


                                                                  
----------------------------------|------------------------------|
----------------------------------|------------------------------|
----------------------------------|--1-1--1-1-1--1-1-1--1-1-1--3-|
--0-0-0-0-0-0-0-0-0-0-0-0-0-0-0-0-|------------------------------|


                                                                  
------------------------------|----------------------------------|
------------------------------|----------------------------------|
--3-3--3-3-3--3-3-3--3-3-3--3-|----------------------------------|
------------------------------|--3-3-3-3-3-3-3-3-3-3-3-3-3-3-3-3-|

[ Tab from: http://www.guitartabs.cc/tabs/q/queens_of_the_stone_age/everybody_knows_that_you_are_insane_btab.html ]
                                                                 
-----------------------------|----------------------------------|
-----------------------------|----------------------------------|
------------1----------------|--1-1-1-1-1-1-1-1-1-1-1-1-1-1-1-1-|
--0-0-0-0-0-----0-0-0-0-0----|----------------------------------|


                                                                  
----------------------------------|------------------------------|
----------------------------------|------------------------------|
--0-0-0-0-0-0-0-0-----------------|------------1-------------1---|
------------------3-3-3-3-3-3-3-3-|--0-0-0-0-0-----0-0-0-0-0-----|


                                                                 
-----------------------------|----------------------------------|
-----------------------------|----------------------------------|
------------1----------------|--1-1-1-1-1-1-1-1-1-1-1-1-1-1-1-1-|
--0-0-0-0-0-----0-0-0-0-0----|----------------------------------|


                                                                  
----------------------------------|------------------------------|
----------------------------------|------------------------------|
--0-0-0-0-0-0-0-0-----------------|------------1-------------1---|
------------------3-3-3-3-3-3-3-3-|--0-0-0-0-0-----0-0-0-0-0-----|


                                                                 
-----------------------------|----------------------------------|
-----------------------------|----------------------------------|
------------1----------------|--1-1-1-1-1-1-1-1-1-1-1-1-1-1-1-1-|
--0-0-0-0-0-----0-0-0-0-0----|----------------------------------|


                                                                  
----------------------------------|------------------------------|
----------------------------------|------------------------------|
--0-0-0-0-0-0-0-0-----------------|------------1-------------1---|
------------------3-3-3-3-3-3-3-3-|--0-0-0-0-0-----0-0-0-0-0-----|


                                                                 
-----------------------------|----------------------------------|
-----------------------------|----------------------------------|
------------1----------------|--1-1-1-1-1-1-1-1-1-1-1-1-1-1-1-1-|
--0-0-0-0-0-----0-0-0-0-0----|----------------------------------|


                                                                  
----------------------------------|------------------------------|
----------------------------------|------------------------------|
--3-3-3-3-3-3-3-3-----------------|------------1-------------1---|
------------------3-3-3-3-3-3-3-3-|--0-0-0-0-0-----0-0-0-0-0-----|


                                                                            
-----------------------------|----------------------|----------------------|
-----------------------------|----------------------|----------------------|
------------1----------------|----------------------|--1-1--1-1------------|
--0-0-0-0-0-----0-0-0-0-0----|--3-3--3-3--3-3--3-3--|------------5-5--5-5--|


                                                                     
----------------------|----------------------|----------------------|
----------------------|----------------------|----------------------|
----------------------|--1-1--1-1------------|----------------------|
--3-3--3-3--3-3--3-3--|------------5-5--5-5--|--3-3--3-3--3-3--3-3--|


                                                          
----------------------|----------------------------------|
----------------------|----------------------------------|
--1-1--1-1------------|----------------------------------|
------------5-5--5-5--|--3-3-3-3-3-3-3-3-3-3-3-3-3-3-3-3-|


                                                                      
----------------------------------|----------------------------------|
----------------------------------|----------------------------------|
--1-1-1-1-1-1-1-1-----------------|----------------------------------|
------------------5-5-5-5-5-5-5-5-|--3-3-3-3-3-3-3-3-3-3-3-3-3-3-3-3-|


                                                                      
----------------------------------|----------------------------------|
----------------------------------|----------------------------------|
--1-1-1-1-1-1-1-1-----------------|----------------------------------|
------------------5-5-5-5-5-5-5-5-|--3-3-3-3-3-3-3-3-3-3-3-3-3-3-3-3-|


                                                                      
----------------------------------|----------------------------------|
----------------------------------|----------------------------------|
--1-1-1-1-1-1-1-1-----------------|----------------------------------|
------------------5-5-5-5-5-5-5-5-|--3-3-3-3-3-3-3-3-3-3-3-3-3-3-3-3-|


                                                                 
-----------------------------|----------------------------------|
-----------------------------|----------------------------------|
------------1----------------|--1-1-1-1-1-1-1-1-1-1-1-1-1-1-1-1-|
--0-0-0-0-0-----0-0-0-0-0----|----------------------------------|


                                                                  
----------------------------------|------------------------------|
----------------------------------|------------------------------|
--0-0-0-0-0-0-0-0-----------------|------------1-------------1---|
------------------3-3-3-3-3-3-3-3-|--0-0-0-0-0-----0-0-0-0-0-----|


                                                                 
-----------------------------|----------------------------------|
-----------------------------|----------------------------------|
------------1----------------|--1-1-1-1-1-1-1-1-1-1-1-1-1-1-1-1-|
--0-0-0-0-0-----0-0-0-0-0----|----------------------------------|


                                                                  
----------------------------------|------------------------------|
----------------------------------|------------------------------|
--0-0-0-0-0-0-0-0-----------------|------------1-------------1---|
------------------3-3-3-3-3-3-3-3-|--0-0-0-0-0-----0-0-0-0-0-----|


                                                                 
-----------------------------|----------------------------------|
-----------------------------|----------------------------------|
------------1----------------|--1-1-1-1-1-1-1-1-1-1-1-1-1-1-1-1-|
--0-0-0-0-0-----0-0-0-0-0----|----------------------------------|


                                                                  
----------------------------------|------------------------------|
----------------------------------|------------------------------|
--0-0-0-0-0-0-0-0-----------------|------------1-------------1---|
------------------3-3-3-3-3-3-3-3-|--0-0-0-0-0-----0-0-0-0-0-----|


                                                                 
-----------------------------|----------------------------------|
-----------------------------|----------------------------------|
------------1----------------|--1-1-1-1-1-1-1-1-1-1-1-1-1-1-1-1-|
--0-0-0-0-0-----0-0-0-0-0----|----------------------------------|


                                                                  
----------------------------------|------------------------------|
----------------------------------|------------------------------|
--3-3-3-3-3-3-3-3-----------------|------------1-------------1---|
------------------3-3-3-3-3-3-3-3-|--0-0-0-0-0-----0-0-0-0-0-----|


                               
-----------------------------||
-----------------------------||
------------1----------------||
--0-0-0-0-0-----0-0-0-0-0----||
Comments