Queens Of The Stone Age - Do It Again Chords & Tabs

 

Do It Again Chords & Tabs

Queens Of The Stone Age Chords & Tabs

Version: 1 Type: Tab 0 ratings
1 star 2 stars 3 stars 4 stars 5 stars
comments

Do It Again Tab

   
Queens of the Stone Age - Do It Again

This is just one of the great songs off of Songs for the Deaf
It's not really that hard, but you must tune down the way Josh
Homme does cause hes a genius, DEAL WITH IT!!!

Tune 2 steps down low to high, (C F Bb Eb G C)


Verse Riff
Play this with up and down strokes
[ Tab from: http://www.guitartabs.cc/tabs/q/queens_of_the_stone_age/do_it_again_tab.html ]
C -----------------------------------| 
G -----------------------7-----------| 
Eb--9--9--9--9--9-------10-bend------| 
Bb--9--9--9--9--9--------------------| 
F --7--7--7--7--7--------------------| 
C --0--0--0--0--0--------------------| 
 
Chorus
I havent quite figured this out but 
it goes something like this

C -----------------------------------| 
G -----------------------------------| 
Eb-------------------------9---------| 
Bb-10-10--7--7--6--6/7--7--9---------| 
F -10-10--7--7--6--6/7--7--7---------| 
C --8--8--5--5--4--4/5--5--0---------| 
 
Thats about it.  The middle part is basically the same chords as
the chorus, just played in a different way.  Email me if you think
this is good, sucks or whatever, at biondokorn@hotmail.com.  
Comments