Queens Of The Stone Age - Do It Again Chords & Tabs

 

Do It Again Chords & Tabs

Queens Of The Stone Age Chords & Tabs

Version: 1 Type: Bass Tab 0 ratings
1 star 2 stars 3 stars 4 stars 5 stars
comments

Do It Again Bass Tab

   
Band- Queens Of The Stone Age
Song- Do It Again

Tuning: C-F-Bb-Eb
Notes:
~ - Let Ring
h - Hammer-On
p - Pull-Off
\ - Slide Down
/ - Slide Up


Intro: 
Eb|-------------------------------------------------------------|
Bb|-------------------------------------------------------------|
F |--7--7-7--7-7\---7--7-7--7-7\---7--7-7--7-7\---7--7-7--7-7\--|
C |-------------------------------------------------------------|


Verse 1:
Eb|-------------------------------------------------------------|
Bb|-------9--------------9--------------9--------------9--------|
F |--7--7----7-7\---7--7----7-7\---7--7----7-7\---7--7----7-7\--|
C |-------------------------------------------------------------|

Eb|---------------------------------------------------------------|
Bb|-------------------------------------------------------9-------|
F |--7--7-7--7-10\---7--7-7--7-11\---7--7-7--7-7\---7--7----7-7\--|
C |---------------------------------------------------------------|

Eb|-------------------------------------------------------------|
Bb|-------9--------------9--------------9--------------9--------|
F |--7--7----7-7\---7--7----7-7\---7--7----7-7\---7--7----7-7\--|
C |-------------------------------------------------------------|

Eb|-------------------------------------------------------------|
Bb|-------9--------------9--------------------------------------|
F |--7--7----7-7\---7--7----7-7\---7--7-7--7-7\---7--7-7--7-7\--|
C |-------------------------------------------------------------| (x2)

Eb|------------------------------------------------------------------------------|
Bb|-------9--------------9-------------------------------------------------------|
F |--7--7----7-7\---7--7----7-7\---7--7-7--7-7\---7--7-7--7-7/10-10-10-10-10-10--|
C |------------------------------------------------------------------------------|


Chorus:
Eb|----------------------------------------------------|
Bb|--12h14-14-12-12------------------------------------|
F |-----------------14-14-12---------------------------|
C |--------------------------12-12-12-12-10-12-12--12--| (x2)

Eb|-------------------------------------------------|
Bb|--14-14-12-12------------------------------------|
F |--------------14-14-12---------------------------|
C |-----------------------12-12-12-12-10-12-12--12--|

Eb|----------------------------------------------------|
Bb|--12h14-14-12-12------------------------------------|
F |-----------------14-14-12---------------------------|
C |--------------------------12-12-12-12-10-12-12--12--| (x2)


Verse 2:
Eb|-------------------------------------------------------------|
Bb|-------------------------------------------------------------|
F |--7--7-7--7-7\---7--7-7--7-7\---7--7-7--7-7\---7--7-7--7-7\--|
C |-------------------------------------------------------------|
[ Tab from: http://www.guitartabs.cc/tabs/q/queens_of_the_stone_age/do_it_again_btab.html ]
Eb|-------------------------------------------------------------|
Bb|-------9--------------9--------------9--------------9--------|
F |--7--7----7-7\---7--7----7-7\---7--7----7-7\---7--7----7-7\--|
C |-------------------------------------------------------------| 

Eb|-------------------------------------------------------------|
Bb|-------9--------------9--------------9-----------------------|
F |--7--7----7-7\---7--7----7-7\---7--7----7-7\---7--7-7--7-7\--|
C |-------------------------------------------------------------| 

Eb|-------------------------------------------------------------|
Bb|-------9--------------9--------------9--------------9--------|
F |--7--7----7-7\---7--7----7-7\---7--7----7-7\---7--7----7-7\--|
C |-------------------------------------------------------------| 

Eb|------------------------------------------------------------------------------|
Bb|-------9--------------9-------------------------------------------------------|
F |--7--7----7-7\---7--7----7-7\---7--7-7--7-7\---7--7-7--7-7/10-10-10-10-10-10--|
C |------------------------------------------------------------------------------|


Chorus:
Eb|----------------------------------------------------|
Bb|--12h14-14-12-12------------------------------------|
F |-----------------14-14-12---------------------------|
C |--------------------------12-12-12-12-10-12-12--12--| (x2)

Eb|-------------------------------------------------|
Bb|--14-14-12-12------------------------------------|
F |--------------14-14-12---------------------------|
C |-----------------------12-12-12-12-10-12-12--12--|

Eb|-------------------------------------------------------|
Bb|--12h14-14-12-12/16-16-14-14---------------------------|
F |-------------------------------------------------------|
C |-----------------------------12-12-12-12-10-12-12--12--|

Eb|-------------------------------------------------|
Bb|--14-14-12-12------------------------------------|
F |--------------14-14-12---------------------------|
C |-----------------------12-12-12-12-10-12-12--12--| (x2)

Eb|----------------------------------------------------|
Bb|--12h14-14-12-12------------------------------------|
F |-----------------14-14-12---------------------------|
C |--------------------------12-12-12-12-10-12-12--12--|

Eb|-------------------------------------------------------|
Bb|--12h14-14-12-12/16-16-14-14---------------------------|
F |-------------------------------------------------------|
C |-----------------------------12-12-12-12-10-12-12--12--|


Break:
Eb|-------------------------|
Bb|-------------------------|
F |--3----------------------|
C |----5-5--5-2-2--2-0---0--| (x4)

Eb|-----------------------------------------|
Bb|-----------------------------------------|
F |--3--3-3-3-------------------------------|
C |-----------5--5-5-5--2--2-2-2--0-0-0--0--| (x4)

Eb|-------------------------------------------|
Bb|-------------------------------------------|
F |--15-15-15-15-15-17-17-17-17-17/19\17------|
C |--------------------------------------0-0--| (x3)

Eb|-------------------|
Bb|-------------------|
F |--7--7-7--7-7--10--|
C |-------------------|
Comments