Queens Of The Stone Age - Burn The Witch Chords & Tabs

 

Burn The Witch Chords & Tabs

Queens Of The Stone Age Chords & Tabs

Version: 7 Type: Tab 0 ratings
1 star 2 stars 3 stars 4 stars 5 stars
comments

Burn The Witch Tab

   
Burn the Witch

(Eb Ab Db Gb Bb Eb)

Intro
Guitar 1
|--------|
|--------|
|--------| x6
|-3-3----| 
|-3-3----|
|-1-1----|

Guitar2
|-----------------------|
|-----------------------| 
|-1---------------------| let guitar one play it's part twice 
|---3-1-----1-----------| Then this four times  
|-------------3-1-------|
|-------1-1-------3-1-1-|

Verse 1
Guitar 1
|--------|
|--------|
|--------| x8
|-3-3----| 
|-3-3----|
|-1-1----|
|
|Guitar2
|
|-----------------------|
|-----------------------| 
|-1---------------------| x8  
|---3-1-----1-----------|   
|-------------3-1-------|
|-------1-1-------3-1-1-|

Chorus
Mostly Drums 
guitar w/ slide
|13----\9----/14----\12----/16----\13---/18----/14----\20|
|--------------------------------------------------------|
|--------------------------------------------------------|
|--------------------------------------------------------|
|--------------------------------------------------------|
|--------------------------------------------------------|
Cont.
|/14----\18----/16----/11--\12--\13|
|----------------------------------|
|----------------------------------|
|----------------------------------|
|----------------------------------|
|----------------------------------|
[ Tab from: http://www.guitartabs.cc/tabs/q/queens_of_the_stone_age/burn_the_witch_tab_ver_7.html ]
Verse 2
Guitar 1
|--------|
|--------|
|--------| x28
|-3-3----| 
|-3-3----|
|-1-1----|
|
|
|-----------------------|
|-----------------------| 
|-1---------------------| x24 
|---3-1-----1-----------|   
|-------------3-1-------|
|-------1-1-------3-1-1-|
 
Chorus
Same as first

after the second chorus you play:
Guitar 1
|-------------------------|
|-------------------------|
|-------------------------|
|-3-3----3-3----3-3----3-3|
|-3-3----3-3----3-3----3-3|
|-1-1----1-1----1-1----1-1|
|
|Guitar 2
|----------------------------|
|-----12-----13-----12-----10|
|-----10-----11-----10-----8-|
|----------------------------|
|----------------------------|
|----------------------------|

Bridge
|--------------|
|--------------|
|--------------|
|3-3---------3-| x20
|3-3---------3-|
|1-1-1-3-1-3-1-|

Sorry don't have the solo

outro
Guitar 1
|--------------|--------------|  
|--------------|--------------|  
|--------------|--------------|
|3-3---------3-|3-3---------3-| 
|3-3---------3-|3-3---------3-|
|1-1-1-3-1-3-1-|1-1-1-3-1-3-1-|
|                                x8
|Guitar 2
|--------------|--------------|
|----9-6-------|--------------|
|--------8-----|--------------|
|--------------|--------------|
|--------------|--------------|
|--------------|--------------|

Thats the best i could do it sounded right so like yeah ok enjoy.!
Comments