Queens Of The Stone Age - Burn The Witch Chords & Tabs

 

Burn The Witch Chords & Tabs

Queens Of The Stone Age Chords & Tabs

Version: 5 Type: Tab 0 ratings
1 star 2 stars 3 stars 4 stars 5 stars
comments

Burn The Witch Tab

Queens of the stone age
Burn the witch
Tuning: EADGBe

Ok, I'm pretty certain that this is the intro.... although i'm probably wrong... well 
cares it sounds good and its easy to play. I have also figured out one part of the chorus 
i put that in too

(its just a bass in the intro but later on the guitar comes in)

  intro (bass does the verse riff) "holding hands, skipping like a stone...."
e|--------------------------------------------------------|
B|--------------------------------------------------------|
G|--------------------------------------------------------|
D|--------------------------------------------------------|
A|--------------------------------------------------------|
E|---0--0--------0---0--------0----0---------0----0-------|
[ Tab from: http://www.guitartabs.cc/tabs/q/queens_of_the_stone_age/burn_the_witch_tab_ver_5.html ]
    Chorus "swear to keep, your mouth shut..."
e|-----------------------------------------------|
B|-----------------------------------------------|
G|-----------------------------------------------|
D|-----------------------------------------------|
A|---8~~~---11~~~~----9~~~~~---12~~~~~~----------|
E|-----------------------------------------------|

   Verse (now the guitar comes in) "ask yourself, will i burn in hell?...."
e|------------------------------------------------|
B|------------------------------------------------|
G|---------0--------------------------------------|
D|-----------2--0---------0-----------------------|
A|---------------------------2--0-----------------|
E|---0--0-----------0--0------------0-------------|

Im have no i dea how the solo goes... it goes to fast and i cant be bothered to keep up 
it.

Later
Comments