Queens Of The Stone Age - Burn The Witch Chords & Tabs

 

Burn The Witch Chords & Tabs

Queens Of The Stone Age Chords & Tabs

Version: 4 Type: Tab 0 ratings
1 star 2 stars 3 stars 4 stars 5 stars
comments

Burn The Witch Tab

Standard tuning

Intro:
--------------------------------------------|
--------------------------------------------|
--------------------------------------------|
-2-2--2-2--2-2--2-2-------------------------|
-2-2--2-2--2-2--2-2-------------------------|
-0-0--0-0--0-2--0-0-------------------------|

Verse 1:
--------------------------------------------|
--------------------------------------------|
--------------------------------------------|
-2-2--\5-2----2-2---------------------------|
-2-2-------5--2-2--2-\5-2---2---------------|
-0-0----------0-0---------5-----------------|

chorus:
guitar 1
--------------------------------------------|
--------------------------------------------|
--------------------------------------------|
--------------------------------------------|
---6---6----9----9---7---7----10----10------|
-7---7---10---10---8---8---11----11---------|
[ Tab from: http://www.guitartabs.cc/tabs/q/queens_of_the_stone_age/burn_the_witch_tab_ver_4.html ]
guitar 2
--------------------------------------------|
--------------------------------------------|
-8~------11~-------9~------12~--------------|
--------------------------------------------|
--------------------------------------------|
--------------------------------------------|

Verse 2:
--------------------------------------------|
--------------------------------------------|
--------------------------------------------|
-2-2--5-2----2-2----------------------------|
-2-2------5--2-2--5-2---2-------------------|
-0-0---------0-0------5---------------------|

i cant be arsed tabbing the solo but most of it is around this:

--------------------------------------------|
--------------------------------------------|
-----------7-9------------------------------|
-------5-7----------------------------------|
---5-7--------------------------------------|
--------------------------------------------|

I love queens but lets face it, josh aint too adventurous with his solos.

Peace out, Johnny Nighthawk O'Rawk
Comments