Queens Of The Stone Age - Burn The Witch Chords & Tabs

 

Burn The Witch Chords & Tabs

Queens Of The Stone Age Chords & Tabs

Version: 3 Type: Tab 0 ratings
1 star 2 stars 3 stars 4 stars 5 stars
comments

Burn The Witch Tab

I love this song.

Standard Tuning Y'all.
e:--------------------------|
B:--------------------------|
G:--------------------------|
D:--------------------------|
A:-2-2----2-2----2-2----2-2-|
E:-0-0----0-0----0-0----0-0-|
[ Tab from: http://www.guitartabs.cc/tabs/q/queens_of_the_stone_age/burn_the_witch_tab_ver_3.html ]
Then into...
e:--------------------------------------|
B:--------------------------------------|
G:--------------------------------------|
D:--------------------------------------|
A:-2-2-/10-7----2-2--------------2-2----|
E:-0-0------10--0-0-/10--7-5/4---0-0----|

I think that's pretty good for now. Hopefully you do too.
Comments