Queens Of The Stone Age - Burn The Witch Chords & Tabs

 

Queens Of The Stone Age Chords & Tabs

Version: 1 Type: Tab 2 ratings
1 star 2 stars 3 stars 4 stars 5 stars
comments

Burn The Witch Tab

this is a great song from their great album lullabies to paralyze


intro
              ---------------------------------------------------------------
              ---------------------------------------------------------------
              ---------------------------------------------------------------
              ------2-2----2-2----2-2----2-2----2-2--------------------------
              ------2-2----2-2----2-2----2-2----2-2--------------------------
              ------0-0----0-0----0-0----0-0----0-0--------------------------

[ Tab from: http://www.guitartabs.cc/tabs/q/queens_of_the_stone_age/burn_the_witch_tab.html ]
verse         ---------------------------------------------------------------
              ---------------------------------------------------------------
              ---------------------------------------------------------------
              ------2-2----5--------2-2--------------------------------------
              ------2-2------7--5---2-2---5----------------------------------
              ------0-0-------------0-0------7--5--3-------------------------

thats mostly it guys if you would like to say anything about it you can e-mail 
me at smallprint@yahoo.ie
Comments