Queens Of The Stone Age - Burn The Witch Chords & Tabs

 

Burn The Witch Chords & Tabs

Queens Of The Stone Age Chords & Tabs

Version: 2 Type: Bass Tab 0 ratings
1 star 2 stars 3 stars 4 stars 5 stars
comments

Burn The Witch Bass Tab

Song: Burn the witch
Artist: Queens of the Stone Age (minus Nick Oliveri)
Album: Lullabies to paralyze
Bassist: Joshua Homme (yes, he also plays bass, and pretty good too.)
Tabbed by: Lostprophit9

Standard tunin'. (EADG)

Intro
[--------------------------------------------|
[--------------------------------------------|
[--------------------------------------------|
[---0-0x--0-0x-0-0x-0-0x-12/-----------------|

Verse
[-----------------------------------|
[--------12-10----------------------|
[--------------12------12-10--------|
[---0-0x----------0-0x-------12-10--| x8

Chorus
[---------------------------------------|
[---------------------------------------|
[---------------------------------------|
[---0-0-0-0-5-5-5-5/-9-9-9-9\-7-7-7-7\--|

[---------------------------------------|
[---------------------------------------|
[---------------------------------------|
[---0-0-0-0-5-5-5-5/-9-9-9-9\-7-7-7-7x--|
[ Tab from: http://www.guitartabs.cc/tabs/q/queens_of_the_stone_age/burn_the_witch_btab_ver_2.html ]
Verse 2
[-----------------------------------|
[--------12-10----------------------|
[--------------12------12-10--------|
[---0-0x----------0-0x-------12-10--| x13

Pre-chorus
[---------|
[---------|
[---------|
[---0-0x--| x4


Chorus
[---------------------------------------|
[---------------------------------------|
[---------------------------------------|
[---0-0-0-0-5-5-5-5/-9-9-9-9\-7-7-7-7\--| x3

[---------------------------------------|
[---------------------------------------|
[---------------------------------------|
[---0-0-0-0-5-5-5-5/-9-9-9-9\-7-7-7-7x--|

Bridge
[---------|
[---------|
[---------|
[---0-0x--| x4

During guitar solo:
[----------------------|
[----------------------|
[----------------------|
[---0-0x-0-3-0-3-------| x20

Final Verse 
[-----------------------------------|
[--------12-10----------------------|
[--------------12------12-10--------|
[---0-0x----------0-0x-------12-10--| x7

[-------------------------------------|
[--------12-10------------------------|
[--------------12------12-10----------|
[---0-0x----------0-0x-------12-10\0--|

Good song.
Comments