Queens Of The Stone Age - Burn The Witch Chords & Tabs

 

Burn The Witch Chords & Tabs

Queens Of The Stone Age Chords & Tabs

Version: 1 Type: Bass Tab 0 ratings
1 star 2 stars 3 stars 4 stars 5 stars
comments

Burn The Witch Bass Tab

BURN THE WITCH BY QUEENS OF THE STONE AGE
Lullabies To Paralyze

its one of the best songs on the album
Im not too sure about the timing, but its in standard tuning not C
i dont know if this is right or not so u can send me your suggestions at chhang7@hotmail.com

Main Riff
|---------------------------------------|
|------12-9-7-------12-9-7-5------------|
|-7-7----------7-7----------------------|
|---------------------------------------|

or ( not as good as the one above)

[ Tab from: http://www.guitartabs.cc/tabs/q/queens_of_the_stone_age/burn_the_witch_btab.html ]
|---------------------------------------|
|-----0----------0----------------------|
|-------2-0--------2-0------------------|
|-0-0--------0-0-------3----------------|

Chrous
(not too sure about it)

|---------------------------------------------|
|---------------------9-9---9/12-12/11-11/9---|
|--6-6-----10--10----7-7-7--7/10-10/9--9-/7---|
|-7-7-7--12--12--12---------------------------| 

Solo
played during the guitar solo


|---------------------------------------|
|---------------------------------------|
|-7-7--7-10-7-10--7-7-------------------|
|---------------------------------------|
Comments