Queens Of The Stone Age - Broken Box Chords & Tabs

 

Broken Box Chords & Tabs

Queens Of The Stone Age Chords & Tabs

Version: 1 Type: Bass Tab 0 ratings
1 star 2 stars 3 stars 4 stars 5 stars
comments

Broken Box Bass Tab

   
Band- Queens Of The Stone Age
Song- Broken Box

H=hammer
~=Let ring
x=Mute string

Verse:
G-------------------------------------|
D-------------------------------------|
A------------------------------------|
E-3-5-5-5--3-5-5-5--3-5-5-5--3-5-5-5--|  x2

G------------------------------------|
D------------------------------------|
A-3-5-5-5--3-5-5-5--3-5-5-5--3-5-5-5-|
E------------------------------------|

G--------------------------------------|
D--------------------------------------|
A-------------------------------------|
E-3-5-5-5--3-5-5-5--3-5-5-5--3-5-5-5---|

Chorus:
G-----------------------------------------------------------------------|
D-----------------------------------------------------------------------|
A------------------------------------3h5-5-5--3h5-5-5--3h5-5-5--3h5-5-5-|
E3h5-5-53h5-5-5--1h3-3-3--1h3-3-3-------------------------------------|
[ Tab from: http://www.guitartabs.cc/tabs/q/queens_of_the_stone_age/broken_box_btab.html ]
G-----------------------------------------------------------------------|
D-----------------------------------------------------------------------|
A---------------------------------------------------------------3h5-5-5-|
E3h5-5-53h5-5-5--6h8-8-8--6h8-8-8--1h3-3-3--1h3-3-3--1h3-3-3----------|

Bridge
G-------------------------------------|
D-------------------------------------|
A----------------------------2h4------|
E---9-9-8--8-7-7--6--5~--2h4----------|

G----------------------------------------------|
D----------------------------------------------|
A------------------------------2h4-2h4-----2h4-|
E---12-12-11--11-10-10--9--8~----------2h4-----|

G--------------------------------------------|
D--------------------------------------------|
A-----------------------2h4-2h4-----2h4------|
E---9-9-8--8-7-7--6--5~---------2h4----------|

G-------------------------------------|
D-------------------------------------|
A-------------------------------------|
E---9-9-8--8-7-7--6-x-----------------|

The just keep repeating the chorus and verse until the song ends. Fun song to play.
Comments