Queens Of The Stone Age - Blood Is Love Chords & Tabs

 

Blood Is Love Chords & Tabs

Queens Of The Stone Age Chords & Tabs

Version: 1 Type: Tab 0 ratings
1 star 2 stars 3 stars 4 stars 5 stars
comments

Blood Is Love Tab

This is another song off of Lullabies to Paralyze. it's really fucking good. in C tuning, naturally

Intro Solo (clean or light, light distortion)
|-13-15-16-15-13-15--13-15-16-18~--12-12--12-13-15-15--15-13-12-10-12-13-10-|
|---------------------------------------------------------------------------|
|---------------------------------------------------------------------------|
|---------------------------------------------------------------------------|
|---------------------------------------------------------------------------|
|---------------------------------------------------------------------------|

|-9-10-12-10-9-10-9-10---7-7--7-9-10-12--6-6-9-10-12--5-5--5-9-10-12-10-9--|
|--------------------------------------------------------------------------|
|--------------------------------------------------------------------------|
|--------------------------------------------------------------------------|
|--------------------------------------------------------------------------|
|--------------------------------------------------------------------------|
[ Tab from: http://www.guitartabs.cc/tabs/q/queens_of_the_stone_age/blood_is_love_tab.html ]
|-4-3-4-3-4-3-4-3-4p3-4-4p3-4-4p3-4-4p3-4p3-4p3-4p3-4p3--|
|--------------------------------------------------------|
|--------------------------------------------------------|
|--------------------------------------------------------|
|--------------------------------------------------------|
|--------------------------------------------------------|

Heavy Distortion
|--------------------------------------------------------------------|
|--------------------------------------------------------------------|
|--------------------------------------------------------------------|
|--16-16----16-16---16-16---16-16---15-15---15-15---15-15---15-15----|
|--14-14----14-14---14-14---14-14---13-13---13-13---13-13---13-13----|
|-0------0-0------0-0----0-0-----0-0-----0-0------0-0----0-0-----0-0-|

|--------------------------------------------------------------|
|--------------------------------------------------------------|
|--------------------------------------------------------------|
|-11-11---11--11--11---11---11-11---11-11---9-9---11-11---9-9--|
|-9--9----9---9---9----9----9---9---9--9----9-9---9--9----9-9--|
|-----0-0--0-0-----0-0---0-0-----0-0-----0-0---0-0-----0-0-----|

|---------------------------------------------------|
|---------------------------------------------------|
|---------------------------------------------------|
|----9-9---9-9---9-9---9-9---7-7---7-7---7-7---7-7--|
|----7-7---7-7---7-7---7-7---5-5---5-5---5-5---5-5--|
|-0-0---0-0---0-0---0-0---0-0---0-0---0-0---0-0-----|

I'll get the breakdown in the middle soon enough... probably
Comments