Queens Of The Stone Age - Auto Pilot Chords & Tabs

 

Auto Pilot Chords & Tabs

Queens Of The Stone Age Chords & Tabs

Version: 2 Type: Bass Tab 0 ratings
1 star 2 stars 3 stars 4 stars 5 stars
comments

Auto Pilot Bass Tab

Queens of the Stone Age
Rated R
 
Auto Pilot(bass:nick oliveri)
tabbed by brian ...  lovesong@mediaone.net
 
Don't complain if some minor things are wrong, reason that you are looking at this is because you didn't feel like learning it on your own, email me with any questions
 
 
 
E-------------------------------------
B-------------------------------------
F#---------------8888-10-10-10-10------
C#---10-10/18--------------------------
 
E-----------------------------------------------------------
B-----------------------------------------------------------
F#---------------------------------------10-10-10-10-10-10---
C#--10-10-10-10-10-10-10-10----6666666-----------------------

[ Tab from: http://www.guitartabs.cc/tabs/q/queens_of_the_stone_age/auto_pilot_btab_ver_2.html ]
Comments