Queens Of The Stone Age - Another Love Song Chords & Tabs

 

Another Love Song Chords & Tabs

Queens Of The Stone Age Chords & Tabs

Version: 2 Type: Tab 0 ratings
1 star 2 stars 3 stars 4 stars 5 stars
comments

Another Love Song Tab

   
queens of the stone age
another love song tab
Tuning: C F Bb Eb G C

Intro riff:
c------------------------------ -----------------------------
g--------------------9--------- ----------9-9--9-------------
eb-9-10-12-10-10--12------9-9-- -9-10-12--------12-10-9-9-9--
bb---------------------10------ -----------------------------
f------------------------------ -----------------------------
c------------------------------ -----------------------------
[ Tab from: http://www.guitartabs.cc/tabs/q/queens_of_the_stone_age/another_love_song_tab_ver_2.html ]
c------------------------------ ------------------------------
g--------------------9--------- ---------------9--9-------11~-
eb-9-10-12-10-10--12------9-9-- -9-10-12-10-12------10-12-----
bb---------------------10------ ------------------------------
f------------------------------ ------------------------------
c------------------------------ ------------------------------

Verse: (This varies.)
C#m, G#7, E, G#7
C#m, G#7, C#m, G#7
C#m, G#7, E, G#7
C#m, G#7, Bm, C5, C#m

Bridge:
C#m, Bbm, A
Comments