Queens Of The Stone Age - Another Love Song Chords & Tabs

 

Another Love Song Chords & Tabs

Queens Of The Stone Age Chords & Tabs

Version: 2 Type: Bass Tab

Another Love Song Bass Tab

   

Tuning: Standard

Intro
G|----------------------|
D|----------------------|
A|--4----4--4-----------|
E|-----4------4--4-4--4-| x4


Verse 1				1st and 3rd ending		2nd ending			4th ending
G|-------------------------|-------------------------|-------------------------|-----------------------------|
D|-------------------------|-------------6--6--------|-------------------------|----4-----4------5-------7---|
A|-4----4-4--4-------------|-7--7-7-7--7------6-6--6-|-4----4-4--4-------------|-2----2-2---2--3---3---5---5-|
E|----4--------4--4-4-4--4-|-------------------------|----4--------4--4-4-4--4-|-----------------------------|


Chorus 1
G|-------------------------------------------------------|
D|-------------------------------------------------------|
A|-4-4----4-4--4---------------4----4-4--4---------------|
E|------4--------4-4--4-4-4--4----4--------4-4--4-4-4--4-|


Verse 2				1st and 3rd ending		2nd ending			4th ending
G|-------------------------|-------------------------|-------------------------|-------------------------------|
D|-------------------------|-------------6--6--------|-------------------------|-------------------------------|
A|-4----4-4--4-------------|-7--7-7-7--7------6-6--6-|-4----4-4--4-------------|-7--7-7-7--7-------------------|
E|----4--------4--4-4-4--4-|-------------------------|----4--------4--4-4-4--4-|-------------4-4-4-4-4-4-4-4-4-|


Chorus 2
G|---------------------------------------------------------|
D|---------------------------------------------------------|
A|-4-4----4-4--4---------------4-4----4-4--4---------------|
E|------4--------4-4--4-4-4--4------4--------4-4--4-4-4--4-|

[ Tab from: http://www.guitartabs.cc/tabs/q/queens_of_the_stone_age/another_love_song_btab_ver_2.html ]
Interlude
G|----------------------------------------------------------|-----------------------------|
D|----------------------------------------------------------|---------------6-6----6-6----|
A|-4-4----4-4--4---------------4-4----4-4--4--------------3-|-4-4----4-4--4------4--------|

x8

G|-----------------------------|
D|----4-----4------5-------7---|
A|-2----2-2---2--3---3---5---5-|
E|-----------------------------|


Bridge
G|--------------------------------------------------------|
D|--------------------------------------------------------|
A|---4-4----4-4----4-4----4-4--------13-----------12------|
E|-4------4------4------4------4-6-/-----13\--5-/-----12\-| x3

G|-----------------------------------------------|
D|-----------------------------------------------|
A|---4-4----4-4----4-4----4-4--------13----------|
E|-4------4------4------4------4-6-/-----13\--5--|


Outro
G|---------------------------------------------------------|
D|---------------------------------------------------------|
A|-4-4----4-4--4---------------4-4----4-4--4---------------|
E|------4--------4-4--4-4-4--4------4--------4-4--4-4-4--4-|

G|-----------------------------------------------------------|
D|---------------------------------------------6---6---6---6-|
A|-4-4----4-4--4---------------4-4----4-4--4-----------------|
E|------4--------4-4--4-4-4--4------4--------4---4---4---4---| x3


G|-----------------------------|------------------|
D|---------------6-6----6-6--6-|--------------6---|
A|-4-4----4-4--4------4--------|-4-4----4-4-4-----|
E|------4----------------------|------4-----------|


| /  slide up
| \  slide down
| h  hammer-on
| p  pull-off
| ~  vibrato
| +  harmonic
| x  Mute note

================================================================================================================