Queens Of The Stone Age - Another Love Song Chords & Tabs

 

Another Love Song Chords & Tabs

Queens Of The Stone Age Chords & Tabs

Version: 1 Type: Bass Tab 0 ratings
1 star 2 stars 3 stars 4 stars 5 stars
comments

Another Love Song Bass Tab

   
Band- Queens Of The Stone Age
Song- Another Love Song

Tuning: E-A-D-G


Intro:
Eb|-------------------------------------------|
Bb|-------------------------------------------|
F |--8--8-8--8-----------8--8-8--8------------|
C |------------8--8-8--8-----------8--8-8--8--| (x2)


Verse 1:
Eb|---------------------------------------------------|
Bb|------------------------------------10--10---------|
F |--8--8-8--8-----------11--11-11--11--------10--10--|
C |------------8--8-8--8------------------------------|

Eb|-------------------------------------------|
Bb|-------------------------------------------|
F |--8--8-8--8-----------8--8-8--8------------|
C |------------8--8-8--8-----------8--8-8--8--|

Eb|---------------------------------------------------|
Bb|------------------------------------10--10---------|
F |--8--8-8--8-----------11--11-11--11--------10--10--|
C |------------8--8-8--8------------------------------|

Eb|-----------------------------------------------|
Bb|--------------------------------10--10-10--10--|
F |--8--8-8--8-----------8--8-8--8----------------|
C |------------8--8-8--8--------------------------|


Pre-Chorus:
Eb|------------------------------|
Bb|----------8------9------10----|
F |--6--6--6---6--7---7--8----8--|
C |------------------------------|


Chorus:
Eb|-----------------------------------------------------|
Bb|-----10------10--10-10--10----10------10--10-10--10--|
F |--8-----8--8---------------8-----8--8----------------|
C |-----------------------------------------------------|


Verse 2:
Eb|-------------------------------------------------------|
Bb|------------10--10-10--10---------------10--10---------|
F |--8--8-8--8---------------11--11-11--11--------10--10--|
C |-------------------------------------------------------|

Eb|---------------------------------------------------|
Bb|------------10--10-10--10-----------10--10-10--10--|
F |--8--8-8--8---------------8--8-8--8----------------|
C |---------------------------------------------------|

Eb|-------------------------------------------------------|
Bb|------------10--10-10--10---------------10--10---------|
F |--8--8-8--8---------------11--11-11--11--------10--10--|
C |-------------------------------------------------------|

Eb|-------------------------------------------------------------|
Bb|------------10--10-10--10-----------10-10-10-10-10-10-10-10--|
F |--8--8-8--8---------------8--8-8--8--------------------------|
C |-------------------------------------------------------------|


Chorus:
Eb|---------------------------------------------------------------------|
Bb|-------10------10-10--10-10-10--10------10------10-10--10-10-10--10--|
F |--8-8-----8-8----------------------8-8-----8-8-----------------------|
C |---------------------------------------------------------------------| (x3)
[ Tab from: http://www.guitartabs.cc/tabs/q/queens_of_the_stone_age/another_love_song_btab.html ]
Eb|-------------------------------------------------------------------------|
Bb|-------10------10-10--10-10-10--10------10------10-10-10-10-10-10-10-10--|
F |--8-8-----8-8----------------------8-8-----8-8---------------------------|
C |-------------------------------------------------------------------------|

Eb|---------------------------------------------------------------------|
Bb|-------10------10-10--10-10-10--10------10------10-10--10-10-10--10--|
F |--8-8-----8-8----------------------8-8-----8-8-----------------------|
C |---------------------------------------------------------------------| (x2)


Pre-Chorus:
Eb|------------------------------|
Bb|----------8------9------10----|
F |--6--6--6---6--7---7--8----8--|
C |------------------------------|


Break:
Eb|--------------------------------------------------------------|
Bb|-------10------10------10-------------7--7--------------------|
F |--8-8-----8-8-----8-8-----8-8-8-8-5-5------5-4-4-4-4-4-4-4-4--|
C |--------------------------------------------------------------|

Eb|--------------------------------------------------------------|
Bb|-------10------10------10-------------7--7-----------6--------|
F |--8-8-----8-8-----8-8-----8-8-8-8-5-5------5-4-4-4-4---4-4-4--|
C |--------------------------------------------------------------|

Eb|--------------------------------------------------------------|
Bb|-------10------10------10-------------7--7--------------------|
F |--8-8-----8-8-----8-8-----8-8-8-8-5-5------5-4-4-4-4-4-4-4-4--|
C |--------------------------------------------------------------|

Eb|-------------------------------------------------|
Bb|-------10------10------10-------------7--7-------|
F |--8-8-----8-8-----8-8-----8-8-8-8-5-5------5-4\--|
C |-------------------------------------------------|


Chorus:
Eb|---------------------------------------------------------------------|
Bb|-------10------10-10--10-10-10--10------10------10-10--10-10-10--10--|
F |--8-8-----8-8----------------------8-8-----8-8-----------------------|
C |---------------------------------------------------------------------|

Eb|-------------------------------------------------------------------------|
Bb|-------10------10-10--10-10-10--10------10------10-10-10-10-10-10-10-10--|
F |--8-8-----8-8----------------------8-8-----8-8---------------------------|
C |-------------------------------------------------------------------------|

Eb|---------------------------------------------------------------------|
Bb|-------10------10-10--10-10-10--10------10------10-10--10-10-10--10--|
F |--8-8-----8-8----------------------8-8-----8-8-----------------------|
C |---------------------------------------------------------------------|

Eb|-----------------------------------------------------|
Bb|-------10------10-10--10-10-10--10------10------10~--|
F |--8-8-----8-8----------------------8-8-----8-8-------|
C |-----------------------------------------------------|
Comments