Queen - Who Wants To Live Forever Chords & Tabs

 

Who Wants To Live Forever Chords & Tabs

Queen Chords & Tabs

Version: 6 Type: Tab 0 ratings
1 star 2 stars 3 stars 4 stars 5 stars
comments

Who Wants To Live Forever Tab

E |-------------------------------------------------------------------| 
B |-------------------------------------------------------------------| 
G |--4h5p4\22h4------------------------------------------------------|   
D |-------------------------------------------------------------------| 
A |-------------------------------------------------------------------| 
E |-------------------------------------------------------------------|
*=play this note low       
E |-------------------------------------------------------------------| 
B |-------------------------------------------------------------------| 
G |--*4--12----11-----9----12----12p11--11-----9----11h12--12---------|   
D |----------------9------------------------9-------------------------| 
A |-------------------------------------------------------------------| 
E |-------------------------------------------------------------------|

E |-------------------------------------------------------------------| 
B |-------------------------------------------------------------------| 
G |-*9-11h12-12/14-14/16-------9-11b12r11b12r11b12r11p9-----------|   
D |----------------------------9-----------------------------12/14----| 
A |-------------------------------------------------------------------| 
E |-------------------------------------------------------------------|

E |-------------------------------------------------------------------| 
B |-------------------------------------------------------------------| 
G |-------------------------------------------------------------------|   
D |--12p11p9----------------------10----------------------------------| 
A |-----------14--12--------------10----------------------------------| 
E |-------------------15--14--12---8----------------------------------|
[ Tab from: http://www.guitartabs.cc/tabs/q/queen/who_wants_to_live_forever_tab_ver_6.html ]
Comments