Queen - Who Wants To Live Forever Chords & Tabs

 

Who Wants To Live Forever Chords & Tabs

Queen Chords & Tabs

Version: 1 Type: Tab 0 ratings
1 star 2 stars 3 stars 4 stars 5 stars
comments

Who Wants To Live Forever Tab

#----------------------------------PLEASE NOTE---------------------------------#
#This file is the author's own work and represents their interpretation of the #
#song. You may only use this file for private study, scholarship, or research. #
#------------------------------------------------------------------------------#

From: Mark Divall 

                      Who Wants To Live Forever

                                 by 

                              Brian May

This is the version from the "Live at Wembley '86" album.
It is in a different key from that on "A Kind of Magic", which is in Em.
This is in Dm and has, I think, a nicer atmosphere than the first.
You can play the single version by sliding the whole lot up 2 frets.
[ Tab from: http://www.guitartabs.cc/tabs/q/queen/who_wants_to_live_forever_tab.html ]
Key.
b - bend up one semitone.
r - release bend.
/x slide up to fret x.
x/ slide down to fret x.
h hammer on.
p pull off.

|--------------------------------------------------------------------------|
|-6--5-----------5b6--5h6p5------5--6-6---5-6-6/8/10-----------------------|
|-------7----------------------------------------------7-9-9b10r9b10r9b10r9|
|---------(7)-(7)-----------7------------7------------7--------------------|
|--------------------------------------------------------------------------|
|--------------------------------------------------------------------------|

|-----------------------------|
|-----------------------------|
|-7-5-7-5h7p5---------------3-|
|-------------7-5-----------3-|
|-----------------8-7-5-3-1-1-|
|-----------------------------|

Hope you enjoy it.

Mark Divall

divallm@cs.man.ac.uk

P.S. Would be grateful for the tab to "White Queen."
Comments