Queen - Who Wants To Live Forever (solo) Chords & Tabs

 

Who Wants To Live Forever (solo) Chords & Tabs

Queen Chords & Tabs

Version: 2 Type: Tab 0 ratings
1 star 2 stars 3 stars 4 stars 5 stars
comments

Who Wants To Live Forever (solo) Tab

#----------------------------------PLEASE NOTE---------------------------------#
#This file is the author's own work and represents their interpretation of the #
#song. You may only use this file for private study, scholarship, or research. #
#------------------------------------------------------------------------------##

From: M.T.Billington@MCS.Salford.ac.uk (Mad Marcus B)

                          Who Wants To Live Forever
                          ~~~~~~~~~~~~~~~~~~~~~~~~~
                                   By Queen
                                   ~~~~~~~~

                                   The Solo
                                   ~~~~~~~~
                              By Pope Bovophobe V
                              ~~~~~~~~~~~~~~~~~~~
                         (Version Datestamp: 27.12.94)

Guitar 1:

e|------------------------------------------------------------------------
B|------------------------------------------------------------------------
G|-4/5\4--2--4~-----------------------------------------------------------
D|------------------------------------------------------------------------
A|------------------------------------------------------------------------
E|------------------------------------------------------------------------
[ Tab from: http://www.guitartabs.cc/tabs/q/queen/who_wants_to_live_forever_solo_tab_ver_2.html ]
Guitar 2:
e|------------------------------------------------------------------------
B|------------------------------------------------------------------------
G|-12~--11---9~-----12~---11---9~----11h12-12--11h12-12/14-16-------------
D|---------9-----------------9--------------------------------------------
A|------------------------------------------------------------------------
E|------------------------------------------------------------------------

e|------------------------------------------------------------------------
B|------------------------------------------------------------------------
G|---9-11-11b12-b12 b12--9------------------------------------------------
D|-9-----------------------12--14~-12----------------------10-------------
A|------------------------------------14-12--12------------10-------------
E|----------------------------------------------15--14-12--8--------------

Guitar 1 repeats itself when it can be bothered throughout.

Most of the vibratos are to keep your fingers happy throughout, except for the 
one on fret 14 in the fast bit.

Guitar 2 does this next bit when he repeats the chorus twice, at some point, 
still with fuzz/ distortion/ whatever. For those of you who really wanted to 
know:

e|-11b12-11-9-------------------------------------------------------------
B|------------12-10-------------------------------------------------------
G|------------------12----------------------------------------------------
D|------------------------------------------------------------------------
A|------------------------------------------------------------------------
E|------------------------------------------------------------------------

Have fun...

Pope Bovophobe V.

For more improvised verse stuff see Jon Rosling's file.
Comments, corrections etc. reach me via Mad Marcus B at
M.T.Billington@MCS.Salford.ac.uk
Comments