Queen - Who Wants To Live Forever (solo) Chords & Tabs

 

Who Wants To Live Forever (solo) Chords & Tabs

Queen Chords & Tabs

Version: 1 Type: Tab 1 rating
1 star 2 stars 3 stars 4 stars 5 stars
comments

Who Wants To Live Forever (solo) Tab

Artist: Queen
Song: Who wants to live forever solo
Tabbed by: Keith Clark
Email: mrnicesg@blueyonder.co.uk



Guitar 1 (played through the whole solo)
e--------------------------------
B--------------------------------
G----4h5p4-----5-----------------
D-----------7--------------------
A--------------------------------
E--------------------------------



Guitar 2
e------------------------------------------------------------
B------------------------------------------------------------
G----12----11---9------12---11h12p11-----9-------------------
D-------------9-----------------------9----------------------
A------------------------------------------------------------
E------------------------------------------------------------

[ Tab from: http://www.guitartabs.cc/tabs/q/queen/who_wants_to_live_forever_solo_tab.html ]
e-------------------------------------------------------------
B-------------------------------------------------------------
G----11/12--12------9h11/12/14/16-----------------------------
D-------------------------------------------------------------
A-------------------------------------------------------------
E-------------------------------------------------------------


e--------------------------------------------------------------
B--------------------------------------------------------------
G-----9-11-11br-11br-11br--9\7--9--9p7--------------------5----
D---9-----------------------------------9p7---------------5----
A---------------------------------------------10p9p7--5---3----
E--------------------------------------------------------------


cheers any coments please feel free to email me
Comments