Queen - We Will Rock You Chords & Tabs

 

We Will Rock You Chords & Tabs

Queen Chords & Tabs

Version: 9 Type: Tab 0 ratings
1 star 2 stars 3 stars 4 stars 5 stars
comments

We Will Rock You Tab

Song: We Will Rock You
Band: Queen
Tabbed by: Sarasman

Its easiest to put your index finger over the e,b,g,d strings on
the 14th fret. The whole solo is based around this finger positioning.
When you come to the part where you bend, you do the first bend normally, but
the second bend you have to pre-bend the 16 to make it sound like 18, then pluck
it and release down to 16.

( )= harmonic
 h = hammer on
 p = pull off
 x = finger mute
 b = bend string
 r = release bent string
 ~ = let ring


E|-------------------------------------|E
B|-------------------------------------|B
G|----------5~-----2-x-2--x-x-x-2-x-2--|G
D|----------5~-----2-x-2-x-x-x-2-x-2--|D
A|--(7)-----3~-----0-x-0--x-x-x-0-x-0--|A
E|-------------------3----x-x-x---3----|E

[ Tab from: http://www.guitartabs.cc/tabs/q/queen/we_will_rock_you_tab_ver_9.html ]
E|----------------------------------------------------|E
B|--14h15-15--15p14-----14-14h15-15-15-15p14-15p14----|B
G|--14----14--14--------14-14----14-14-14----14-------|G
D|--14h16-16--16p14-----14-14h16-16-16-16p14-16p14----|D
A|----------------------------------------------------|A
E|----------------------------------------------------|E

E|-----17p15----14--------------------------------------|E
B|--14--------------17---15p14----15~------15p14--------|B
G|-----------14----------------14----------------16p14--|G
D|------------------------------------------------------|D
A|------------------------------------------------------|A
E|------------------------------------------------------|E

E|------------------------------------|E
B|--17-17-1417b19-17-14--------------|B
G|-----------------------18r16-16-14--|G
D|------------------------------------|D
A|------------------------------------|A
E|------------------------------------|E

E|--------------------------------------------------------|E
B|--14-15p14-15p14-14-14~~---14-15p14-15p14-14-14-----14--|B
G|--14-14----14----14-14~~---14-14----14----14-14--14-14--|G
D|--14-16p14-16p14-14-14~~---14-16p14-16p14-14-14--14-14--|D
A|--0----------------------------------------------0------|A
E|--------------------------------------------------------|E
                             \_________________________/ 
                             Repeat this sec 2 more times
Comments