Queen - We Will Rock You Chords & Tabs

 

We Will Rock You Chords & Tabs

Queen Chords & Tabs

Version: 8 Type: Tab 0 ratings
1 star 2 stars 3 stars 4 stars 5 stars
comments

We Will Rock You Tab

-------------------------------------------------------------------
			     We Will Rock You - Queen
-------------------------------------------------------------------
By: Paul Goulding

h  - hammer on 
p  - pull off 
BU - bend string up
~  - vibrato 
X  - play 'note' with string muting

e|----------------|---------------|---------------|--------------|
B|----------------|---------------|---------------|--------------|
G|--(9)-----------|---------------|---------------|--------------|
D|----------------|---------------|---------------|--------------|
A|----------------|---------------|---------------|--------------|
E|----------------|---------------|---------------|--------------|
Long sustained note (crescendo) for 4 bars 
e|----------------------------------------------------------------|
B|----------------------------------------------------------------|
G|--- 5 ----------------------------------------------X-----X-----|
D|--- 5 ----------------------------------------------X-----X-----|
A|--- 3 ----------------------------------------------X-----X-----|
E|----------------------------------------------------------------| 


e|----------------------------------------------------------------|
B|----------------------------------------------------------------|
G|---2-------2------X-X-X--X----2------2-------2--------14------|
D|---2-------2------X--X--X--X----2------2-------2--------14------|
A|---0-------0------X--X--X--X----0------0-------0----------------|
E|---------3----------------------------------3-------------------|

         	
e|----------------------------------------------------------------|
B|----14h-15----------15--14--------------------------------14----|
G|----14--------------14--14--------------------------------14----|
D|----14h-16----------16--14--------------------------------14----|
A|-----------0-----------------------------------------0----------|
E|----------------------------------------------------------------|

   	 
e|-----------------------------------------------------17p-15-----|
B|----14h-15--15p-14-15p-14-15p-14-----------14-----------------|
G|----14------14------14------14----------------------------------|
D|----14h-16-16p-14-16p-14-16p-14---------------------------14-|
A|----------------------------------------------------------------|
E|----------------------------------------------------------------|
[ Tab from: http://www.guitartabs.cc/tabs/q/queen/we_will_rock_you_tab_ver_8.html ]
Let note ring--|				      
e|-14-------------------------------------------------------------|
B|------17--------15p-14-------15---------------15p14------------|
G|----------------14-----------14-----------------------16p14-----|
D|---14----14-----16p-14-16---16---------------------------------|
A|----------------------------------------------------------------|
E|----------------------------------------------------------------|


	BU	                 BU     
e|-------------------------------14-------------------------------|
B|----17----17p14---17--17(19)---------17p-14----------------14---|
G|-------------------------------------------16(18)-16p14---14---|
D|-----------------------------------------------------------14---|
A|--0----0---------------------------------------------------0----|
E|----------------------------------------------------------------| 



e|----------------------------------------------------------------|
B|-----15p-14-15p-14-------------14------------------------------|
G|-----14------14-----------------14------------------------------|
D|-----16p-14-16p-14----14-------14------------------------X-----|
A|--------------------------------0-------------------------------|
E|----------------------------------------------------------------|


e|----------------------------------------------------------------|
B|---14---15p-14-15p-14------14---------15-----14---------14-----|
G|---14---14------14----------14---------14-----14---------14-----|
D|---14---16p-14-16p-14--14--14---------16-----14---------14-----|
A|---0------------------------0-----------------0----------0------|
E|----------------------------------------------------------------| 


e|----------------------------------------------------------------|
B|---14---15p-14-15p-14------14---------15-----14---------14-----|
G|---14---14------14----------14---------14-----14---------14-----|
D|---14---16p-14-16p-14--14--14---------16-----14---------14-----|
A|---0------------------------0-----------------0----------0------|
E|----------------------------------------------------------------|


e|----------------------------------------------------------------|
B|---14---15p-14--15p-14------14---------15-----14---------14-----|
G|---14---14------14----------14---------14-----14---------14-----|
D|---14---16p-14--16p-14--14--14---------16-----14---------14-----|
A|---0------------------------0-----------------0----------0------|
E|----------------------------------------------------------------|


e|----------------------------------------------------------------|
B|---14---15p-14-15p-14------14---------15-----14----------------|
G|---14---14------14----------14---------14-----14----------------|
D|---14---16p-14-16p-14--14--14---------16-----14----------------|
A|---0------------------------0-----------------0-----------------|
E|----------------------------------------------------------------|
Comments