Queen - We Will Rock You Chords & Tabs

 

We Will Rock You Chords & Tabs

Queen Chords & Tabs

Version: 5 Type: Tab 1 rating
1 star 2 stars 3 stars 4 stars 5 stars
comments

We Will Rock You Tab

   
#----------------------------------PLEASE NOTE---------------------------------#
#This file is the author's own work and represents their interpretation of the #
#song. You may only use this file for private study, scholarship, or research. #
#------------------------------------------------------------------------------#
#

Queen: We will rock you                       News of the world/1977/May
------------------------------------------|-----------------------------
-5-------222---2xx--2--2-214---h15--1514--|--1414h1515p1415p141514--14--
-5-------222---2xx--2--2-214--------1414--|--1414---14---14---1414------
-5-------222---2xx-22--2-214-14h16--1614--|----14h1616p1416p141614------
-3-------000---0xx-00--0-0-0-------0------|-0---0---------0------0------
--------------3---2-----3-----------------|-----------------------------

-1715--14--------------------------------------------14----------
-----------17--1514--15---1514--------17--1714-17b19---1714------
---------------1414--14-------1614------14-(14)------------171614
(14)-14--14--14----1616--------(14)-14-----(14)------------------
(-0)------------------0------------------------------------------
-----------------------------------------------------------------
[ Tab from: http://www.guitartabs.cc/tabs/q/queen/we_will_rock_you_tab_ver_5.html ]
-------------------|--------------------------|----|
-14-15p1415141414--|-14-15p1415141414-15--14--|----|
-14-14---14141414--|-14-14---14141414-14--14--|-0/-|
-14-16p1416141414--|-14-16p1416141414-16--14--|-/0-|
------------0-0-0--|0-0---------0-0-0--0--0---|----|
-------------------|--------------------------| 2X |

fast version / Live Killers

|---------------|----|----------------------------------|----|
|-9--10(p9)10p9-|----|-------10--10p9-------------------|----|
|-9---9-----9---|-0/-|--------9---9---------------------|-0/-|
|-9---9-----9---|-/0-|-9---9--9---9------9---9-911---9--|-/0-|
|-7---7-----7---|----|-7---7-------------7---7-7-----7--|----|
|-0---0-----0---| 7X |-0---0-------------0---0-0-----0--|----|

G(X) D(X) C(VIII)

|-----------|
|-----------|
|-----------|
|-------9---|
|-------7---|
|-3-2-1-0---|

...

|------------------------------|----|-------------------------------|
|-12-----12--12--12------------|----|-15b17---17r15p12-15-----------|
|-11b13-b13-b13-b13r12p10----10|-0/-|-----------------------14b16---|
|-------------------------12---|-/0-|-------------------------------|
|------------------------------|----|-------------------------------|
|------------------------------|----|-------------------------------|


|-------------------------------------------------------------------|
|-12------------------(12)------------------------------------------|
|------14p12-14p12-----12-------------------------------------------|
|-----------------14--------14p12-----------------------------------|
|--------------------------------14---13---12---10---12p10----------|
|----------------------------------------------------------12\------|
transcribed by Pinter Denes
Comments