Queen - We Will Rock You Chords & Tabs

 

We Will Rock You Chords & Tabs

Queen Chords & Tabs

Version: 4 Type: Tab 4 ratings
1 star 2 stars 3 stars 4 stars 5 stars
comments

We Will Rock You Tab

We Will Rock You
Queen/1977

I tabbed this song for two guitars because that is what
is in my band. The way I did this was I tabbed for the lead guitar instead of the voice. So the notes the singer would hit would be what the guitar plays.

Intro/Verse(guitar 1)
------------------------------------------------------
------------------------------------------------------
------------------------------------------------------
------------------------------------------------------
-12/1414-12/1414-141414-1414-12/1414-12/1414-19-17-17-
-10/1212-10/1212-121212-1212-10/1212-10/1212-17-15-15-

------------------------------------------------------
------------------------------------------------------
------------------------------------------------------
------------------------------------------------------
-1214-1214--141414--141414141414-7-5-2----------------
-1012-1012--121212--121212121212-5-3-0----------------
[ Tab from: http://www.guitartabs.cc/tabs/q/queen/we_will_rock_you_tab_ver_4.html ]
Chorus(guitars 1+2)
------------------------------------------------------
------------------------------------------------------
------------------------------------------------------
------------------------------------------------------
-17-16-14-12-1414-----17-16-15-12-1414----------------
-15-14-12-10-1212-----15-14-12-10-1212----------------

Solo(guitar 1)

----------------------------------------------------------------------
-5-------222---2xx--2--2-214---h15--1514----1414h1515p1415p141514--14-
-5-------222---2xx--2--2-214--------1414----1414---14---14---1414-----
-5-------222---2xx-22--2-214-14h16--1614------14h1616p1416p141614-----
-3-------000---0xx-00--0-0-0-------0-------0---0---------0------0-----
--------------3---2-----3---------------------------------------------

-1715--14--------------------------------------------14----------
-----------17--1514--15---1514--------17--1714-17b19---1714------
---------------1414--14-------1614------14-(14)------------171614
(14)-14--14--14----1616--------(14)-14-----(14)------------------
(-0)------------------0------------------------------------------
-----------------------------------------------------------------

-------------------------------------------------|
-14-15p1415141414---14-15p1415141414-15--14------|
-14-14---14141414---14-14---14141414-14--14---0/-|
-14-16p1416141414---14-16p1416141414-16--14---/0-|
------------0-0-0--0-0---------0-0-0--0--0-------|
--------------------------------------------- 2X |

Hope you like it.  Im sure its very 
accurate and it should sound great.
Comments