Queen - We Will Rock You Chords & Tabs

 

We Will Rock You Chords & Tabs

Queen Chords & Tabs

Version: 3 Type: Tab 0 ratings
1 star 2 stars 3 stars 4 stars 5 stars
comments

We Will Rock You Tab

   
WE WILL ROCK YOU
Words and music by Brian May



        fade in w/volume control
 27Bars ~~~~~~~~~~~~~~~~~~~~~~~~~~~~~~~~~~~~~~~~
|------|---------|----------|---------|---------|-----------------------------|
|------|---------|----------|---------|---------|-----------------------------|
|------|-9-------|----------|---------|---------|--5-------------------2--2---|
|------|---------|----------|---------|---------|--5-------------------2--2---|
|------|---------|----------|---------|---------|--3-------------------0--0---|
|------|---------|----------|---------|---------|-----------------------------|

              P.M.
           -----------|                             ~~~~~~~~~~~~
|------------------------------------|----------------------------------------|
|---------------------------------14-|-14--15---15--14------------------14----|
|--2---2----------------2---2--2--14-|-14--14---14--14------------------14----|
|--2---2----------------2---2--2--14-|-14--16---16--14------------------14----|
|--0---0---3.3-3.3---0--0---0--0--0--|-0---0----0---0---------------0---------|
|-----3------------3-----------3-----|----------------------------------------|
      SB   \-----/ SB          SB
             N.H.
[ Tab from: http://www.guitartabs.cc/tabs/q/queen/we_will_rock_you_tab_ver_3.html ]
                     LET RING        P                    
~~~~~~~~~~~~~~~~~~~~
    H           -----------------------|      -------------------------
-------
|----------------------------------17-15---|----------------------------------|
|-14-15--15-----15---15--14----14----------|--19-17-17-17-15-14---15----14----|
|-14-14--14-----14---14--14----------------|--------------14-14---14------16--|
|-14-16--16-----16---16--14----------------|--------------------16----------14|
|------------0-----0----0----------------0-|--------------------------------14|
|------------------------------------------|----------------------------------|

      P             FB        P    FB         ~~~~~~   P     P      
~~~~
|------------------------14---------------------|-----------------------------|
|---17-14--17-14----17------17-15-------------14|----15-14-15-14-14-14----X-14|
|----------------------------------16---16-14-14|----14-14-14-14-14-14----X-14|
|---------------------------------------------14|----16-14-16-14-14-14----X-14|
|-0---------------0-----------------------------|-------------0--0--0-------0-|
|-----------------------------------------------|-----------------------------|

       P     P                                       P     P
|------------------------------------|-----------|----------------------------|
|-14-15-14-15-14-14-14---15-14--X\14-|---REPEAT--|-15-14-15-14-14-14---15-14--|
|-14-14-14-14-14-14-14---14-14--X\14-|--PREVIOUS-|-14-14-14-14-14-14---14-14--|
|-14-16-14-16-14-14-14---16-14--X\14-|----BAR----|-16-14-16-14-14-14---16-14--|
|-0--------------0--0----14-0-----0--|-----------|-------------0--0----0--0---|
|------------------------------------|-----------|----------------------------|

Legend:

~~ : trill
P   : pull-off
H   : hammer-on
FB  : full bend
SB  : slight bend (approx 1/4 step bend)
P.M.: palm mute
N.H.: natural harmonics

Comments