Queen - We Will Rock You Chords & Tabs

 

We Will Rock You Chords & Tabs

Queen Chords & Tabs

Version: 1 Type: Tab 9 ratings
1 star 2 stars 3 stars 4 stars 5 stars
comments

We Will Rock You Tab

Title: We Will Rock You
Artist: Queen

Tabbed: Jon Zegar (email: wkgnpimp15@hotmail.com)



INTRO (play with heavy distortion and a lot of reverb)

There is no other good tabs of this song out and this one is perfect!!
[ Tab from: http://www.guitartabs.cc/tabs/q/queen/we_will_rock_you_tab.html ]
|-----------------------|--15--12---------------------------------|
|--0--0----0--0----0--0-|----------15--12---(13)--13--12--10--0---|
|--0----0--0--0-0--0--0-|--0---0---0------0-------0-------0---0---|
|-----------------------|-----------------------------------------|
|-----------------------|-----------------------------------------|
|-----------------------|-----------------------------------------|


|--------------------------------------|
|--15-12-15-12-15--17--15--12-------12-|
|--0-----0-----0-------0-----14-12--0--|
|--------------------------------------|
|--------------------------------------|
|--------------------------------------|


|--------------------------|
|--13--13--12--12--13--12--|
|--0---0-------0---0---0---|
|--12--12------12--12--12--| (3 times)
|--------------------------|
|--------------------------|
Comments