Queen - We Will Rock You Solo Chords & Tabs

 

We Will Rock You Solo Chords & Tabs

Queen Chords & Tabs

Version: 1 Type: Tab 13 ratings
1 star 2 stars 3 stars 4 stars 5 stars
comments

We Will Rock You Solo Tab

Queen – We will rock you,

This is my first time posting a tab, if there are any mistakes email them to me – webmaster@canterbyrn.zzn.com. Tabbed by David Devine.

Use as much destrotion that is possible with this one (it sounds amazing)



E||-------------------------|---------------------------|
B||-------------------------|----------------------3----|
G||---------------2----2--x-|--x-x---2---2----2--2-2--2-|
D||--x-x-5--------2----2--x-|--x-x---2---2----2--2-4--2-|
A||--x-x-5--------0----0--x-|--x-x---0---0----0--0----0-|
E||--x-x-3-----------3------|------3--------------------|

[ Tab from: http://www.guitartabs.cc/tabs/q/queen/we_will_rock_you_solo_tab.html ]
                                                                                
------------------------------------|----------17-15-14------------------------|
--3--------14-15-15-14-15-14-15-14--|--14--14-----------17-15-14-15--14--------|
--2-2------14-14-14-14-14-14-14-14--|--14--14---------------------------16-14--|
--4-2------14-16-16-14-16-14-16-14--|--14--14----------------------------------|
----0-------------------------------|------------------------------------------|
------------------------------------|------------------------------------------|


                                     
---------------------14-------------|
----14--17---14--17b----17-14-------|
------------------------------17-16-|
------------------------------------|
------------------------------------|
------------------------------------|


                                             3x
|--------------------------------------------||
|------14--14-15-14-15-14-15-14--14-15--14---||
|*--14-14--14-14-14-14-14-14-14--14-14--14--*||
|*-----14--14-16-14-16-14-16-14--14-16--14--*||
|--------------------------------------------||
|--------------------------------------------||

Comments