Queen - Under Pressure Chords & Tabs

 

Under Pressure Chords & Tabs

Queen Chords & Tabs

Version: 4 Type: Bass Tab 0 ratings
1 star 2 stars 3 stars 4 stars 5 stars
comments

Under Pressure Bass Tab

FROM: MaRtIn BaZaN (Martin_ss4@hotmail.com)
Artist: *Queen* feauturing *David Bowie*
Song: Under Pressure
Album: Hot space
Year: 1982

============================================================================
Symbols explanation:
  H= hammer on           P= pull off
  += slap                .= pop
  \= slide backward      /= slide forward
  --x~~x~~x: triplets


G|----------------------------------------------|
D|-12-12-12-12-12-12------12-12-12-12-12-12-----|
A|-------------------12---------------------12--|
E|----------------------------------------------|
[ Tab from: http://www.guitartabs.cc/tabs/q/queen/under_pressure_btab_ver_4.html ]
G|----------------------------------------------|
D|-12-12-12-12-12-12------12-12-12-12-12-12-----|
A|-------------------12---------------------12--|
E|----------------------------------------------|

G|------------------------------------------------------------|
D|------------------------------------------------------------|
A|-5-5-5-5-5-5-0--4-4-4-4-4-4-0--2-2-2-2-2-2-0--0-0-0-0-0-0-0-|
E|------------------------------------------------------------|

And before the ending...


G|-------------------------------|
D|-------------------------------|
A|-5-5-5-5-5-5-0--4-4-4-4-4-4-0--|
E|-------------------------------|

G|--------------------------------------------|
D|-12-12-12-12-12-12------12-12-12-12-12-12---|
A|-------------------12-----------------------|
E|--------------------------------------------|

Finish
G|----------|
D|----------|
A|-12-------|
E|----------|


The end!
Dedicated to all queen fans
P.S QUEEN ROCKS!!!!!!!
Comments